» » »

One Man Show Down - To Those Who Hate Bass tabs (ver.1)

Artists:  A B C D E F G H I J K L M N O P Q R S T U V W X Y Z # 

One Man Show Down - To Those Who Hate Bass tabs (ver.1)

Unsigned
Rating:
0/5 (0 votes)

Hard to play? Try these video lessons and learn fast.
                My band “One man show down” has jus started writing it’s own stuff.
This is a tab for our first song. “To those who hate”
In standard tuning (EADG)


Verse  
G --------------------------------------------------½
D---------------------------------------------------½
A--------10----------7----------3-----------5-----½
E---8-8-----8---5-5----5---1-1---1---3-3----3--½

Chorus
G---------------------------------------½
D---------------------------------------½
A---------10101010----------8888--½
E---888--------------101010---------½

Bass solo x2     (play 3 & let ring on 2nd time)
G----------------------------------------------½½-------½
D--------------------------------------5320--½½--3---½
A------810810-----75----3333-------------½½-------½
E---88-----------55-----11-------33--------½½-------½

Last verse variation x2
G--------------------------------½
D--------------------------------½
A--------------------------------½
E---888---555---111---333--½

ORDER:
Verse x6
Chorus x4
Verse x4
Chorus x4
Solo x2
Verse variation x2
Chorus x4

I hope that one day u will hear this song on Mtv or Kerrang!
            
Hard to play? Try these video lessons and learn fast. | Correct




comments powered by Disqus
↑ Back to top | Tablatures and chords are parodies/interpretations of the original songs. You may use it for private study, scholarship, research or language learning purposes only