» » »

Unsigned, Omanick - Have You Heard Tabs (ver.1)

Artists:  A B C D E F G H I J K L M N O P Q R S T U V W X Y Z # 

Omanick - Have You Heard Tabs (ver.1)

Unsigned Tabs
 Rating:
4/5 (4 votes)
Omanick - Have You Heard lessons Tabs too difficult? Try these video lessons and learn fast
1
                MUSICIAN: Kieran Allsop
SONG TITLE: Have You Heard

STRUMMING: ……………...

VERSE:

E	||:--0-0-0--0-0-0----0-0-0--0-0-0--:||:--3-3-3--3-3-3----0-0-0--0-0-0--
B	||:--1-1-1--1-1-1----1-1-1--1-1-1--:||:--3-3-3--3-3-3----1-1-1--1-1-1--
G	||:--2-2-2--2-2-2----0-0-0--0-0-0--:||:--0-0-0--0-0-0----2-2-2--2-2-2--
D	||:--3-3-3--3-3-3----2-2-2--2-2-2--:||:--0-0-0--0-0-0----2-2-2--2-2-2--
A	||:--0-0-0--0-0-0----3-3-3--3-3-3--:||:--2-2-2--2-2-2----0-0-0--0-0-0--
E	||:--0-0-0--0-0-0----0-0-0--0-0-0--:||:--3-3-3--3-3-3----0-0-0--0-0-0--


CHORUS:

E	||:--0----0----0----0----0----3----0--0--:||:--0----0----0----0----0----2----3--3--
B	||:--1----1----0----1----1----3----0--0--:||:--1----1----0----1----1----3----3--3--
G	||:--2----0----0----0----2----0----0--0--:||:--2----0----0----0----2----2----0--0--
D	||:--3----2----2----2----2----0----2--2--:||:--3----2----2----2----2----0----0--0--
A	||:--0----3----2----3----0----2----2--2--:||:--0----3----2----3----0----0----2--2--
E	||:--0----0----0----0----0----3----0--0--:||:--0----0----0----0----0----0----3--3--

SOLO

E	||-----5--6--5-------------5--6--5-------5--6--5--------------------
B	||--5-----------7--5----5--------------5------------7--5--7--5------
G	||-------------------------------------------------------------------7--
D	||-----------------------------------------------------------------------
A	||-----------------------------------------------------------------------
E	||-----------------------------------------------------------------------

E	||--5----7--8--5--10--7----5----------------------------------------
B	||----8--------------------------5--8--5--7--5----5--7--------------
G	||-------------------------------------------------7-------------------
D	||----------------------------------------------------------------------
A	||----------------------------------------------------------------------
E	||----------------------------------------------------------------------
            
Submit corrections

comments powered by Disqus
↑ Back to top | Unsigned Tabs for Omanick - Have You Heard. Lyrics for acoustic guitar and electric guitar. 1 Tablatures and chords are parodies/interpretations of the original songs. You may use it for private study, scholarship, research or language learning purposes only