» » »

Old Macdonald Tabs (ver.1)

Artists:  A B C D E F G H I J K L M N O P Q R S T U V W X Y Z # 

Old Macdonald Tabs (ver.1)

Unsigned
Rating:
0/5 (0 votes)

Hard to play? Try these video lessons and learn fast.
                Main riff
E]>------------------------------------------------------------------------------
B]>---------------------0-0--------------------------------0-0-----------------
G]>---0-0-0-----------------2-2-0-----0-0-0-----------------2-2-0----------
D]>-----------0-2-2-0---------------0---------0-2-2-0------------------------
A]>------------------------------------------------------------------------------
E]>------------------------------------------------------------------------------

Chorus                                  repeat riff after main chorus
E] >------------------------------------------------------------------------------
B] >------------------------------------------------------------------------------
G] >--------0-0-0-----0-0-0--0-0-0-0-0-0-0-0-0-0-0-0---------------------
D] >---0-0--------0-0-----------------------------------------------------------
A] >------------------------------------------------------------------------------
E] >------------------------------------------------------------------------------
            
Hard to play? Try these video lessons and learn fast. | Correct




comments powered by Disqus
↑ Back to top | Tablatures and chords are parodies/interpretations of the original songs. You may use it for private study, scholarship, research or language learning purposes only