» » »

Unsigned, Number T - Song #2 Tabs (ver.1)

Artists:  A B C D E F G H I J K L M N O P Q R S T U V W X Y Z # 

Number T - Song #2 Tabs (ver.1)

Unsigned Tabs
Rating:
0/5 (0 votes)
Number T - Song #2 lessons Tabs too difficult? Try these video lessons and learn fast
                I don't really have a band i just made this myself but ah well :P.

Intro: Guitar 1
e|--------------------------------------------------------------------------|
B|--------------------------------------------------------------------------|
G|------4p0-----4p0------7p0------7p0------4p0-----4p0------7p0------7p0----|
D|----0-------0--------0--------0--------0-------0--------0--------0--------| 2x
A|--2----------------5-----------------2----------------5-------------------|
E|----------3-----------------5----------------3-----------------5----------|

Verse 1: Both Guitars
e|-------------------------------------------|
B|-------------------------------------------|
G|--44444444--44444444--77777777-------------|
D|--xxxxxxxx--00000000--xxxxxxxx--77777777---| 4x
A|--22222222--xxxxxxxx--55555555--xxxxxxxx---|
E|------------33333333------------55555555---|

Intro: Guitar 1
e|--------------------------------------------------------------------------|
B|--------------------------------------------------------------------------|
G|------4p0-----4p0------7p0------7p0------4p0-----4p0------7p0------7p0----|
D|----0-------0--------0--------0--------0-------0--------0--------0--------| 1x
A|--2----------------5-----------------2----------------5-------------------|
E|----------3-----------------5----------------3-----------------5----------|

Verse 2: Both Guitars
e|-------------------------------------------|
B|-------------------------------------------|
G|--44444444--44444444--77777777-------------|
D|--xxxxxxxx--00000000--xxxxxxxx--77777777---| 4x
A|--22222222--xxxxxxxx--55555555--xxxxxxxx---|
E|------------33333333------------55555555---|

Pre-Chorus: Both Guitars
e|------------------------------------------|
B|------------------------------------------|
G|--------------------------------------7---|
D|--5-55--7-77--2-22-22222--5-55--7-77--x---| 1x
A|--5-55--7-77--2-22-22222--x-xx--x-xx--9---|
E|--3-33--5-55--0-00-00000--3-33--5-55------|

Chorus: Both Guitars
e|--------------------------------------------|
B|--------------------------------------------|
G|--44444444------------77777777--------------|
D|--44444444--77777777--77777777--55555555----| 4x
A|--22222222--77777777--55555555--55555555----|
E|------------55555555------------33333333----|

Intro: Guitar 1
e|--------------------------------------------------------------------------|
B|--------------------------------------------------------------------------|
G|------4p0-----4p0------7p0------7p0------4p0-----4p0------7p0------7p0----|
D|----0-------0--------0--------0--------0-------0--------0--------0--------| 1x
A|--2----------------5-----------------2----------------5-------------------|
E|----------3-----------------5----------------3-----------------5----------|

Verse 3: Both Guitars
e|-------------------------------------------|
B|-------------------------------------------|
G|--44444444--44444444--77777777-------------|
D|--xxxxxxxx--00000000--xxxxxxxx--77777777---| 2x
A|--22222222--xxxxxxxx--55555555--xxxxxxxx---|
E|------------33333333------------55555555---|

Pre-Chorus: Both Guitars
e|------------------------------------------|
B|------------------------------------------|
G|--------------------------------------7---|
D|--5-55--7-77--2-22-22222--5-55--7-77--x---| 1x
A|--5-55--7-77--2-22-22222--x-xx--x-xx--9---|
E|--3-33--5-55--0-00-00000--3-33--5-55------|

Chorus: Both Guitars
e|--------------------------------------------|
B|--------------------------------------------|
G|--44444444------------77777777--------------|
D|--44444444--77777777--77777777--55555555----| 4x
A|--22222222--77777777--55555555--55555555----|
E|------------55555555------------33333333----|

Bridge: Guitar 1
e|-----------------------------------------------------------------|
B|-----------------------------------------------------------------|
G|---------4-2-0-2-----0h4-0h4---2--7--6--7--6---------------------|
D|----44-0----------44---------0----------------7*-7*-77-7*-7*-77--| 4x
A|--2------------------------------5--5--5--5---7*-7*-77-7*-7*-77--|
E|-----------------3----------------------------5*-5*-55-5*-5*-55--|

Bridge: Guitar 2
e|----------------------------------------------------------|
B|----------------------------------------------------------|
G|--44444444--1212121212121212--77777777--1414141414141414--|
D|--xxxxxxxx---x-x-x-x-x-x-x-x--xxxxxxxx---x-x-x-x-x-x-x-x--| 4x
A|--22222222--1010101010101010--55555555--1212121212121212--|
E|----------------------------------------------------------|

Build Up to Chorus:         Guitar 1
e|----------------------------------------------------------------------|
B|----------------------------------------------------------------------|
G|----------------------------------------------------------------------|
D|---7-7-7-7-7-7-7-7-7-7-7-7-7-7-7-7-7-7-7-7-7-7-7-7-7-7-7-7-7-7-7-7----|
A|---7-7-7-7-7-7-7-7-7-7-7-7-7-7-7-7-7-7-7-7-7-7-7-7-7-7-7-7-7-7-7-7----|
E|---5-5-5-5-5-5-5-5-5-5-5-5-5-5-5-5-5-5-5-5-5-5-5-5-5-5-5-5-5-5-5-5----|
 |									|
 |									|
 |									|
 |			    Guitar 2					|
e|----------------------------------------------------------------------|
B|----------------------------------------------------------------------|
G|--1414141414141414141414141414141414141414141414141414141414141414----|
D|---x-x-x-x-x-x-x-x-x-x-x-x-x-x-x-x-x-x-x-x-x-x-x-x-x-x-x-x-x-x-x-x----|
A|--1212121212121212121212121212121212121212121212121212121212121212----|
E|----------------------------------------------------------------------|

Verse 4: Guitar 1: Palm Mute
e|-------------------------------------------|
B|-------------------------------------------|
G|--44444444--44444444--77777777-------------|
D|--xxxxxxxx--00000000--xxxxxxxx--77777777---| 2x
A|--22222222--xxxxxxxx--55555555--xxxxxxxx---|
E|------------33333333------------55555555---|
p.m ........  ........  ........  ........

Chorus: Both Guitars
e|--------------------------------------------|
B|--------------------------------------------|
G|--44444444------------77777777--------------|
D|--44444444--77777777--77777777--55555555----| 8x
A|--22222222--77777777--55555555--55555555----|
E|------------55555555------------33333333----|

Outro: Guitar 1 - Guitar 2 plays verse chords in beat with this
e|--------------------------------------------------------------------------|
B|--------------------------------------------------------------------------|
G|------4p0-----4p0------7p0------7p0------4p0-----4p0------7p0------7p0----|
D|----0-------0--------0--------0--------0-------0--------0--------0--------|
A|--2----------------5-----------------2----------------5-------------------|
E|----------3-----------------5----------------3-----------------5----------|

e|--------------------------------------------------------------------------|
B|--------------------------------------------------------------------------|
G|------4p0-----4p0------7p0------7p0------4p0-----4p0------7p0------7p0----|
D|----0-------0--------0--------0--------0-------0--------0--------0--------|
A|--2----------------5-----------------2----------------5-------------------|
E|----------3-----------------5----------------3-----------------5----------|
            
Submit corrections

comments powered by Disqus
↑ Back to top | Unsigned Tabs for Number T - Song #2. Lyrics for acoustic guitar and electric guitar. Tablatures and chords are parodies/interpretations of the original songs. You may use it for private study, scholarship, research or language learning purposes only