» » »

Unsigned, No Win Situation - We Could Tabs (ver.1)

Artists:  A B C D E F G H I J K L M N O P Q R S T U V W X Y Z # 

No Win Situation - We Could Tabs (ver.1)

Unsigned Tabs
 Rating:
4/5 (4 votes)
No Win Situation - We Could lessons Tabs too difficult? Try these video lessons and learn fast
1
                "We Could" by No Win Situation
Standard Tuning- Strum pattern not indicated

Verse
Guitar 1-acoustic
Guitar 2-clean electric

e|-3-3-3-3--3-3-3-3--2-2-2-2--3-3-3-3--2-2-2-2--3-3-3-3--| Guitar 1 strums these
B|-3-3-3-3--3-3-3-3--3-3-3-3--3-3-3-3--3-3-3-3--3-3-3-3--|  chords, as Guitar 2
G|-------------------2-2-2-2--2-2-2-2--2-2-2-2--2-2-2-2--|   fingerpicks them.
D|-2-2-2-2-----------------------------------------------|   
A|-3-3-3-3--2-2-2-2--------------------------------------| Guitar 2 strums chords
E|----------3-3-3-3--------------------------------------|    on second verse.  

Chorus
Guitar 1-acoustic

e|-3-3-3-3--3-3-3-3--2-2-2-2--3-3-3-3--|
B|-3-3-3-3--3-3-3-3--3-3-3-3--3-3-3-3--|
G|-------------------2-2-2-2-----------|
D|-2-2-2-2-----------------------------|
A|-3-3-3-3--2-2-2-2-----------2-2-2-2--|
E|----------3-3-3-3-----------3-3-3-3--|

Guitar 2-light distortion

e|-------------------------------------|
B|-------------------------------------|
G|-5-5-5-5-----------7-7-7-7-----------|
D|-5-5-5-5--5-5-5-5--7-7-7-7--5-5-5-5--|
A|-3-3-3-3--5-5-5-5--5-5-5-5--5-5-5-5--|
E|----------3-3-3-3-----------3-3-3-3--|

Bridge
Guitar 1

e|-3--3----3--3----2-2-2-2--3-3-3-3--2-2-2-2--3-3-3-3--|  Repeat this
B|-3---0---3---0---3-3-3-3--3-3-3-3--3-3-3-3--3-3-3-3--|    twice.
G|------0-------0--2-2-2-2--2-2-2-2--2-2-2-2--2-2-2-2--|
D|-2---------------------------------------------------|
A|-3-------2-------------------------------------------|
E|---------3-------------------------------------------|

Guitar 2-light distortion

e|-----------------------------------------------------|  Repeat this
B|-----------------------------------------------------|    twice.
G|-5---------------7-----------------------------------|
D|-5-------5-------7-----------------------------------|
A|-3-------5-------5-----------------------------------|
E|---------3-------------------------------------------|


Song Layout:
Verse  x5
Chorus x2
Verse  x2
Chorus x2
Bridge
Chorus x5
------------------------------------*WILKEY*-----------------------------------------
            
Submit corrections

comments powered by Disqus
↑ Back to top | Unsigned Tabs for No Win Situation - We Could. Lyrics for acoustic guitar and electric guitar. 1 Tablatures and chords are parodies/interpretations of the original songs. You may use it for private study, scholarship, research or language learning purposes only