» » »

Unsigned, No Win Situation - Back And Forth Tabs (ver.1)

Artists:  A B C D E F G H I J K L M N O P Q R S T U V W X Y Z # 

No Win Situation - Back And Forth Tabs (ver.1)

Unsigned Tabs
Rating:
0/5 (0 votes)
No Win Situation - Back And Forth lessons Tabs too difficult? Try these video lessons and learn fast
                "Back and Forth" by No Win Situation
Drop D Tuning

Intro/ Outro
Guitar 1-light distortion

e|-------------------------------------------------------------------------|
B|-------------------------------------------------------------------------|
G|----------5-5-5-5-----------5-5-5-5-----------5-5-5-5-----------5-5-5-5--|
D|-2-2-2-2--5-5-5-5--2-2-2-2--5-5-5-5--2-2-2-2--5-5-5-5--2-2-2-2--5-5-5-5--|
A|-2-2-2-2--3-3-3-3--2-2-2-2--3-3-3-3--2-2-2-2--3-3-3-3--2-2-2-2--3-3-3-3--|
D|-2-2-2-2-----------2-2-2-2-----------2-2-2-2-----------2-2-2-2-----------|

Then...
Guitar 1-flange
Guitar 2-heavy distortion

e|-------------------------------------------------------------------------------|
B|-------------------------------------------------------------------------------|
G|----------5-5-5-5-----------5-5-5-5-----------5-5-5-5--------------------------|
D|-2-2-2-2--5-5-5-5--2-2-2-2--5-5-5-5--2-2-2-2--5-5-5-5--9-10-9-10--7-9-7-9---2--|
A|-2-2-2-2--3-3-3-3--2-2-2-2--3-3-3-3--2-2-2-2--3-3-3-3--9-10-9-10--7-9-7-9---2--|
D|-2-2-2-2-----------2-2-2-2-----------2-2-2-2-----------9-10-9-10--7-9-7-9---2--|

Verse
Both Guitars-heavy distortion
                                        [--Guitar 2-palm muted--]
e|-------------------------------|-------------------------------|
B|-------------------------------|-------------------------------|
G|--------------------5--4--5-4--|-------------------------------|
D|-2-2----2-2----2-2--5--4--5-4--|-2-2---------------------------|
A|-2-2----2-2----2-2--3--2--3-2--|-2-2--3-3-3-3-5-5-5-5-2-2-3-3--|
D|-2-2----2-2----2-2-------------|-2-2---------------------------|

Chorus
Guitar 1

e|-------------------------------------|
B|-------------------------------------|
G|-------------------5-5-5-5--4-4-4-4--|
D|-2-2-2-2--5-5-5-5--5-5-5-5--4-4-4-4--|
A|-2-2-2-2--5-5-5-5--3-3-3-3--2-2-2-2--|
D|-2-2-2-2--5-5-5-5--------------------|

Guitar 2

e|------------------------------------------------|
B|------------------------------------------------|
G|-------------------5-5-5-5----------------------|
D|-2-2-2-2--5-5-5-5--5-5-5-5--9-10-9-10--7-9-7-9--|
A|-2-2-2-2--5-5-5-5--3-3-3-3--9-10-9-10--7-9-7-9--|
D|-2-2-2-2--5-5-5-5-----------9-10-9-10--7-9-7-9--|

Fill
Both Guitars

e|-------------------------------------------------------------------------|
B|-------------------------------------------------------------------------|
G|----------5-5-5-5-----------5-5-5-5-----------5-5-5-5-----------5-5-5-5--|
D|-2-2-2-2--5-5-5-5--2-2-2-2--5-5-5-5--2-2-2-2--5-5-5-5--2-2-2-2--5-5-5-5--|
A|-2-2-2-2--3-3-3-3--2-2-2-2--3-3-3-3--2-2-2-2--3-3-3-3--2-2-2-2--3-3-3-3--|
D|-2-2-2-2-----------2-2-2-2-----------2-2-2-2-----------2-2-2-2-----------|

Bridge
Guitar 2

e|-----------------------------------------|  Play this
B|-----------------------------------------|   twice.
G|--------------------------------5-5-5-5--|
D|-2-2-2-2-2--2-2-2-2--2-2-2-2-2--5-5-5-5--|
A|-2-2-2-2-2--2-2-2-2--2-2-2-2-2--3-3-3-3--|
D|-2-2-2-2-2--2-2-2-2--2-2-2-2-2-----------|


Song Layout:
Intro
Verse  x2
Chorus x2
Fill
Verse  x2
Chorus x2
Bridge
Outro

------------------------------------*WILKEY*-----------------------------------------
            
Submit corrections

comments powered by Disqus
↑ Back to top | Unsigned Tabs for No Win Situation - Back And Forth. Lyrics for acoustic guitar and electric guitar. Tablatures and chords are parodies/interpretations of the original songs. You may use it for private study, scholarship, research or language learning purposes only