» » »

Notu - The Worlds Against You Bass tabs (ver.1)

Artists:  A B C D E F G H I J K L M N O P Q R S T U V W X Y Z # 

Notu - The Worlds Against You Bass tabs (ver.1)

Unsigned
Rating:
0/5 (0 votes)

Hard to play? Try these video lessons and learn fast.
                Intro pt.1 (Intro pt.1 then 2 then 1 again are the chorus)
G-------3r--5r------------3r--5r-|
D----3r----------------3r--------|
A-3r----------------3r-----------|
E--------------------------------|

Intro pt.2
G-------5r--7r------------5r--7r-|
D----5r----------------5r--------|
A-5r----------------5r-----------|
E--------------------------------|

Intro pt. 1

Verse x2
G-----------3333--5555|x2|-----------5555--7777-|x2|
D------3333-----------|--|------5555------------|--|
A-3333----------------|--|-5555-----------------|--|
E---------------------|--|----------------------|--|

Chorus 

Verse

Chorus x2 (slower last time)
(This song is a tribute to one of my friends that died)
If someone you know passed away itz a cool song to sing)

Here are the lyrics
The whole world’s against you

	 (Verse 1)
Sometimes it feels like the whole worlds against you.
Sometimes you feel like you don’t know what to do.
But then you turn around and see your friends are behind you.
And suddenly you now what you should do.

You always felt like no one ever cared about you.
No one ever showed anything to you.
But things turned around and you soon would see;
How often those people are always going to be... there

	(Chorus[no/few words])

	(Verse 2)
You thought when you were gone, no one would ever care.         
You thought that they would just forget that you were there.
But they realized how much they would miss you;
If you would have to leave them forever... now

	(Chorus end)
They realize how much they’d miss you.
And after you’d gone, they wouldn’t know what to do
But they have friends just like you do
And they know now what   they   should    do.
Enjoy! try to think of your own beat if you sing it.
            
Hard to play? Try these video lessons and learn fast. | Correct




comments powered by Disqus
↑ Back to top | Tablatures and chords are parodies/interpretations of the original songs. You may use it for private study, scholarship, research or language learning purposes only