» » »

No Shadows Cast- Introduction Corrected Tabs (ver.1)

Artists:  A B C D E F G H I J K L M N O P Q R S T U V W X Y Z # 

No Shadows Cast- Introduction Corrected Tabs (ver.1)

Unsigned
Rating:
0/5 (0 votes)

Hard to play? Try these video lessons and learn fast.
                E--------------------------------------------------------------------
B--------------------------------------------------------------------
G--------------------------------------------------------------------
D--------------------------------------------------------------------
A--2-----2-----2-----2-----2-----------------------------------------
E----1-----1-----1-----1-----1---------------------------------------

E--------------------------------------------------------------------
B--------------------------------------------------------------------
G--------------------------------------------------------------------
D--------------------------------------------------------------------
A--10--10--10----11--11--11-----10---10---10--------------12---b-----  (10x)
E---9---9---9-----10--10--10------9----9----9--------------12--------

E--------------------------------------------------------------------
B--------------------------------------------------------------------
G--------------------------------------------------------------------
D--------------------------------------------------------------------
A-----1-1----4--4--4--4--4------------------------------------------- (6x)
E-----1-1-----3--3---3--3--3-----------------------------------------

E--------------------------------------------------------------------
B--------------------------------------------------------------------
G--------------------------------------------------------------------
D--------------------------------------------------------------------
A-----10----8---6--6--6---8--8----10--10-----------------------------   (2x)
E-------9----7---5--5--5---7--7----9---9-----------------------------
            
Hard to play? Try these video lessons and learn fast. | Correct




comments powered by Disqus
↑ Back to top | Tablatures and chords are parodies/interpretations of the original songs. You may use it for private study, scholarship, research or language learning purposes only