» » »

Nosferatu - Deserved Deceptions Tabs (ver.1)

Artists:  A B C D E F G H I J K L M N O P Q R S T U V W X Y Z # 

Nosferatu - Deserved Deceptions Tabs (ver.1)

Unsigned
Rating:
0/5 (0 votes)

Hard to play? Try these video lessons and learn fast.
                Intro/Bridge/outro

    D5/G#                   G5
E|-----------------------|-----------------------|---
B|-----------------------|-----------------------|---
G|-----------------------|-----------------------|---
D|-----------------------|-----------------------|---
A|------5---5---5----5---|------5---5---5----5---|---
d|--6-----6---6----6-----|--5-----5---5----5-----|---




Verse

    Asus4          A#sus4    Asus4          A#sus4    Asus4          A#sus4    Asus4          D#sus4
E|------------------------|------------------------|------------------------|------------------------|---
B|------------------------|------------------------|----------------------- |----------------------- |---
G|------------------------|------------------------|------------------------|------------------------|---
D|--0----x-x-xx-x--1-1-1--|--0----x-x-xx-x--1-1-1--|--0----x-x-xx-x--1-1-1--|--0----x-x-xx-x--6-6-6--|---
A|--0----x-x-xx-x--1-1-1--|--0----x-x-xx-x--1-1-1--|--0----x-x-xx-x--1-1-1--|--0----x-x-xx-x--6-6-6--|---
d|--0----x-x-xx-x--1-1-1--|--0----x-x-xx-x--1-1-1--|--0----x-x-xx-x--1-1-1--|--0----x-x-xx-x--6-6-6--|---




Chorus(Clean)

    Fsus4                     C#sus4                    A#sus4                    Asus4
E|-------------------------|-------------------------|-------------------------|--------------------|---
B|-------------------------|-------------------------|-------------------------|--------------------|---
G|-------------------------|-------------------------|------------------------ |--------------------|---
D|--------8-----8-------8--|--------4-----4-------4--|--------1-----1-------1--|--------0--------0--|---
A|-----8-----8--------8----|-----4-----4--------4----|-----1-----1--------1----|-----0--------0-----|---
d|--8--------------8-------|--4--------------4-------|--1--------------1-------|--0---------0-------|---




Chorus(Heavy)

    Fsus4                  C#sus4                 A#sus4                 Asus4
E|----------------------|----------------------|----------------------|----------------------|---
B|----------------------|----------------------|----------------------|----------------------|---
G|----------------------|----------------------|--------------------- |----------------------|---
D|--8--x8--8----8----8--|--4--x4--4----4----4--|--1--x1--1----1----1--|--0--x0--0----0----0--|---
A|--8--x8--8----8----8--|--4--x4--4----4----4--|--1--x1--1----1----1--|--0--x0--0----0----0--|---
d|--8--x8--8----8----8--|--4--x4--4----4----4--|--1--x1--1----1----1--|--0--x0--0----0----0--|---


1. Intro 4x

2. Verse 2x

3. Chorus(Clean) 4x

4. Verse 2x

5. Chorus(Clean) 2x

6. Chorus(Heavy) 4x

7. Bridge 4x

8. Verse 2x

9. Chorus(Heavy) 4x

10. Outro (play until whenever end)
            
Hard to play? Try these video lessons and learn fast. | Correct




comments powered by Disqus
↑ Back to top | Tablatures and chords are parodies/interpretations of the original songs. You may use it for private study, scholarship, research or language learning purposes only