» » »

Unsigned, Noise Pollution - Punishment Bass tabs (ver.1)

Artists:  A B C D E F G H I J K L M N O P Q R S T U V W X Y Z # 

Noise Pollution - Punishment Bass tabs (ver.1)

Unsigned Tabs
Rating:
0/5 (0 votes)
Noise Pollution - Punishment lessons Tabs too difficult? Try these video lessons and learn fast
                Intro

G:--------------]
D:--------------]
A:--------------]                x5
E:--11-2-3-4-3--]

Verse

G:-------------------------------------------]
D:-------------------------------------------]
A:------------7--9-77------------------------]           X8
E:--2-222/--9---------5-555-0-444444444--00--]

Chorus

G:--------------------------------------]
D:--------------------------------------]
A:--------------------------------------]                X8
E:--3-333/-5-555----11111111--00000000--]

Outro

G:----------------------------------------------------------]
D:----------------------------------------------------------]
A:----------------------------------------------------------]       X16
E:--1--0----1-0-1-0----3-2-1--0--12-12-12-12--14-14-14-140--]

lISTING

Intro
Verse
Chorus
Verse
Chorus
Outro
This is a good tab our third song of the album
Got a record deal in Windermere
HA HA HA HA HA HA IN YOUR FACE
            

comments powered by Disqus
↑ Back to top | Unsigned Bass for Noise Pollution - Punishment. Lyrics for acoustic guitar and electric guitar. Tablatures and chords are parodies/interpretations of the original songs. You may use it for private study, scholarship, research or language learning purposes only