» » »

Unsigned, Noise Pollution - Pain Bass tabs (ver.1)

Artists:  A B C D E F G H I J K L M N O P Q R S T U V W X Y Z # 

Noise Pollution - Pain Bass tabs (ver.1)

Unsigned Tabs
Rating:
0/5 (0 votes)
Hard to play? Try these video lessons and learn fast.
                Intro		See the bottom for the line up

Only bass and lead guitar at the start

G:-----------]
D:-----------]
A:-----------]					x2
E:--0-2-0-2--]

Intro Part 2

G:-----------------------------]
D:-----------------------------]
A:-----------------------------]			x1
E:--0-2-0-2-0-2-0-2------------]

Intro Part 3

The second guitar starts in after five bars the symbol comes in

G:----------------------------]
D:----------------------------]
A:---------------------3---2--]	x6 and put the riff below in every 3 times
E:--0-2-0-2-0-2-0-2-----------]
 
Intro Part 4

Play this after every 3 Intro part 3 until finish including chorus.

G:-------------------------------]
D:-------------------------------]
A:---------------------3------4--]		x2
E:--0-2-0-2-0-2-0-2--------------]

Verse

Both of these riffs are played after each other 

G:-----------------------------]
D:-----------------------------]
A:----------------------6---5--]	   x6 and put the riff below in every 3 times
E:--0-5-0-5-0-5-0-5------------]

Verse Part 2

G:-------------------------------]
D:-------------------------------]
A:---------------------7------6--]		x2
E:--0-5-0-5-0-5-0-5--------------]

Verse Part 3

G:----------------------------]
D:----------------------------]
A:---------------------3---2--]			x8
E:--0-2-0-2-0-2-0-2-----------]

Chorus

G:----------------------------]
D:----------------------------]
A:---------------------3---2--] 	   x12 and put the riff below in every 3 times
E:--0-2-0-2-0-2-0-2-----------]

Chorus Part 2				       

 G:------------------------------]
D:-------------------------------]
A:---------------------3------4--]		 x4
E:--0-2-0-2-0-2-0-2--------------]

Line Up

Intro				 x2
Intro Part 2			 x1
Intro Part 3 			 x6
Intro Part 4 			 x2
Verse 				 x6
Verse Part 2 			 x2
Verse Part 3 			 x8
Verse 				 x6
Verse Part 2 			 x2
Chorus 			 x12
Chorus Part 2 			 x4
Verse 				 x6
Verse Part 2 			 x2
Verse Part 3 			 x8
Verse 				 x6
Verse Part 2 			 x2
Chorus 			 x12
Chorus Part 2 			 x4
            

comments powered by Disqus
↑ Back to top | Unsigned Bass for Noise Pollution - Pain. Lyrics for acoustic guitar and electric guitar. Tablatures and chords are parodies/interpretations of the original songs. You may use it for private study, scholarship, research or language learning purposes only