» » »

Unsigned, Neo Nemesis - Eyedie Tabs (ver.1)

Artists:  A B C D E F G H I J K L M N O P Q R S T U V W X Y Z # 

Neo Nemesis - Eyedie Tabs (ver.1)

Unsigned Tabs
 Rating:
4/5 (4 votes)
Neo Nemesis - Eyedie lessons Tabs too difficult? Try these video lessons and learn fast
                INTRO:


5]------------------------------------------]
4]------------------------------------------]
3]------------------------------------------]
2]-3-0-00-0-3-0-00-0-3-0-00-0-1-0-1-4]
1]-1-0-00-0-1-0-00-0-1-0-00-0-1-0-1-4]  (X4)
 (2ND guitarist comes in after second time)

				Calum’s solo:

5]------------------------------------------------------]
4]------------------------------------------------------]
3]------------------------------------------------------]
2]----------------------------------2-------------------
1]-010010101014-010010101012-010010101014-

				(continued):


5]-----------------------------------------]
4]-----------------------------------------]
3]-----------------------------------------]   (Dale joins
2]---------------4-------------------------]   in on the
1]-01001010102-------------------------]   third gap)






				Heavy Riff (distortion):

5]----------------------------------------------------]
4]----------------------------------------------------]
3]----------------------------------------------------]
2]-030030303036-03003030302-030030303036-
1]-010010101014-01001010102-010010101014-

				(Continued):

5]-----------------------------------------------------]
4]-----------------------------------------------------]
3]-----------------------------------------------------]
2]-03003030304-0-0-0-0-3-0-0-0-0-5-0-0-0-0-3-
1]-01001010102-0-0-0-0-1-0-0-0-0-4-0-0-0-0-1-

				(Continued):

5]----------------------------------------------------]
4]----------------------------------------------------]
3]-----------4-5-------------------------------------]
2]-0-0-0-0-2-3-0-0-0-0-3-0-0-0-0-6-0-0-0-0-3--
1]-0-0-0-0-x-x-0-0-0-0-1-0-0-0-0-4-0-0-0-0-1—







				(Continued)

5]---------------]
4]---------------]
3]-----------4-5]
2]-0-0-0-0-2-3]
1]-0-0-0-0-x-x]

NOTE: SOME LINES ARE MOVED SLIGHTLY.BUT THERE’S NO CHANGE TO TAB.


SKUD=SINGER
DALE= GUITARIST#1
CALUM= GUITARIST#2
DANNY= BASS GUITARIST
KEVIN= DRUMS
            
Submit corrections

comments powered by Disqus
↑ Back to top | Unsigned Tabs for Neo Nemesis - Eyedie. Lyrics for acoustic guitar and electric guitar. Tablatures and chords are parodies/interpretations of the original songs. You may use it for private study, scholarship, research or language learning purposes only