» » »

Negative Zero - Snap Tabs (ver.1)

Artists:  A B C D E F G H I J K L M N O P Q R S T U V W X Y Z # 

Negative Zero - Snap Tabs (ver.1)

Unsigned
Rating:
0/5 (0 votes)

Hard to play? Try these video lessons and learn fast.
                negative zero-snap
This is a band fresh from poway Ca.


Intro

E--------------------------------------------------------------
B--------------------------------------------------------------
G--------------------------------------------------------------
D-0-----3\----4--4/----3----------------------------------------------         ( x 3 )
A-0-----3-\---4--4/----3---------------------------------------------
E-0-----1-\---2--2/----1----------------------------------------------

Verse

E--------------------------------------------------------------
B--------------------------------------------------------------
G--------------------------------------------------------------
D--------------------------------------------3-------------3\4-----         ( x 3 )
A-------------------------------------------------------------
E--000--1---03---02--10-----xx--x--------xx--x---------------------------------

Chorus

E--------------------------------------------------------------
B--------------------------------------------------------------
G--------------------------------------------------------------
D-0-----3\----4--4/----3---( x3)----/4/--6-------------------------------------         ( x 3 )
A-0-----3-\---4--4/----3-------------/4/--6------------------------------
E-0-----1-\---2--2/----1-------------/2/--4-------------------------------

Interlude

E--------------------------------------------------------------
B--------------------------------------------------------------
G-------------------------------------------------------------------
D-----0000-3--0000-3-0000-3/4\3p3-(x4)--0005------005\6/5-----0000000--   (x4)(x3)           
A------------------------------------------------------0005-(x2)005\6/5-----0000000--
E------------------------------------------------------0003------003\4/3-----0000000--

Outro

E--------------------------------------------------------------
B--------------------------------------------------------------
G--------------------------------------------------------------
D-0003----------0003\4\6----------------------------------------------------------         ( x 1)
A-0003--(x2)---0003\4\6---------------------------------------------------------
E-0001----------0001\2\4----------------------------------------------------------
            
Hard to play? Try these video lessons and learn fast. | Correct




comments powered by Disqus
↑ Back to top | Tablatures and chords are parodies/interpretations of the original songs. You may use it for private study, scholarship, research or language learning purposes only