» » »

Unsigned, Nasty Nachos - Stupid Bitch Tabs (ver.1)

Artists:  A B C D E F G H I J K L M N O P Q R S T U V W X Y Z # 

Nasty Nachos - Stupid Bitch Tabs (ver.1)

Unsigned Tabs
 Rating:
4/5 (4 votes)
Nasty Nachos - Stupid Bitch lessons Tabs too difficult? Try these video lessons and learn fast
1
                *** you, *** you, *** you!!!!!
You stupid b**ch, you see the outside not the inside
--4-------10----------------------------------------
--2------------11----------------------------------
--3-----------------12------------------------------
--0-7-------------------10----8----------------------
--1----------------------------2--2---4---4----------
---------------------------------2--3----8--9-------
 You don’t care about life, you stupid dyke *** you, *** you
The world is nothing to you except to you except fear,                                                              
----10---------------------------------------------
-------11-----16------------------------------------
----------15------------------------16--14--19-----------
-----------------2-2-2-----------------------------
-------------------------22-----------------------
-----------------------------22-------------------
For me it is fast cars and cheap beers                                                               
----14---------------------------18------------------
--------------16----------------------------20------
-------------------------------------------------
------------------------------------------------
------------------------------------------------
------------------------------------------------
            
Submit corrections

comments powered by Disqus
↑ Back to top | Unsigned Tabs for Nasty Nachos - Stupid Bitch. Lyrics for acoustic guitar and electric guitar. 1 Tablatures and chords are parodies/interpretations of the original songs. You may use it for private study, scholarship, research or language learning purposes only