» » »

Unsigned, Mystery Milita - Lost Tabs (ver.1)

Artists:  A B C D E F G H I J K L M N O P Q R S T U V W X Y Z # 

Mystery Milita - Lost Tabs (ver.1)

Unsigned Tabs
Rating:
0/5 (0 votes)
Mystery Milita - Lost lessons Tabs too difficult? Try these video lessons and learn fast
                Mystery Milita
Lost

Standard Tuning E, A, D, G, B, E

Intro
E-----------------------------------------|
B-----------------------------------------|
G-----------------------------------------|
D------2----3----2----5-5-----------------|
A----4----5----4----5---------------------|
E--2----3----2----3-----------------------|

Chorus
E-----------------------------------------|
B-----------------------------------------|
G-----------------------------------------|
D-----------4-4-4-4----------5-5-5-5------|
A--4-4-4-4-2-2-2-2-5-5-5-5-5-3-3-3-3------|
E--2-2-2-2-----------3-3-3-3--------------|

Outro
E-----------------------------------------|
B-----------------------------------------|
G-----------------------------------------|
D------2----3----2----3--5----------------|
A----4----5----4----5----5----------------|
E--2----3----2----3------5----------------|
            

comments powered by Disqus
↑ Back to top | Unsigned Tabs for Mystery Milita - Lost. Lyrics for acoustic guitar and electric guitar. Tablatures and chords are parodies/interpretations of the original songs. You may use it for private study, scholarship, research or language learning purposes only