» » »

My Band - Cool Song Tabs (ver.1)

Artists:  A B C D E F G H I J K L M N O P Q R S T U V W X Y Z # 

My Band - Cool Song Tabs (ver.1)

Unsigned
Rating:
0/5 (0 votes)

Hard to play? Try these video lessons and learn fast.
                copyright 2003 brandon graham
This is a little somethin i came up with.
|----------------------------------------------------------------------------------|
|----------------------------------------------------------------------------------|
|----------------------------------------------------------------------------------|
|--------------5-4------------5-4------------5-4-5-4-5-4------------5-4------------|
|--------------5-4------------5-4------------5-4-5-4-5-4------------5-4------------|
|----0--0000---3-2--0--0000---3-2--0--0000---3-2-3-2-3-2--0--0000---3-2--0--0000---|
P.M.    xxxx           xxxx           xxxx                   xxxx           xxxx

|----------------------------------------------------------------------------------|
|----------------------------------------------------------------------------------|
|----------------------------------------------------------------------------------|
|----5-4------------5-4-5-4-3------------5-4------------5-4------------5-4-5-4-5-7-|
|----5-4------------5-4-5-4-3------------5-4------------5-4------------5-4-5-4-5-7-|
|----3-2--0--0000---3-2-3-2-1--0--0000---3-2--0--0000---3-2--0--0000---3-2-3-2-3-5-|
P.M.         xxxx                 xxxx           xxxx           xxxx

|----------------------------------------------------------------------------------|
|----------------------------------------------------------------------------------|
|----------------------------------------------------------------------------------|
|--------------5-4------------5-4------------5-4-5-4-3-----------------------------|
|--------------5-4------------5-4------------5-4-5-4-3--Let Ring-------------------|
|----0--0000---3-2--0--0000---3-2--0--0000---3-2-3-2-1-----------------------------|
P.M.    xxxx           xxxx           xxxx
            
Hard to play? Try these video lessons and learn fast. | Correct




comments powered by Disqus
↑ Back to top | Tablatures and chords are parodies/interpretations of the original songs. You may use it for private study, scholarship, research or language learning purposes only