>
 >
Moonraven - A Thanks To My Friends

Moonraven - A Thanks To My Friends Guitar Tabs

Unsigned - Moonraven - A Thanks To My Friends chords, tabs, tablatures, lyrics

Guitar lessons | Add/correct | Request | Top 50 tabs Artists:  A B C D E F G H I J K L M N O P Q R S T U V W X Y Z 0-9

Moonraven - A Thanks To My Friends Guitar Tabs – Unsigned

CD, Sheet music, Poster

Do you like Moonraven - A Thanks To My Friends? Share with your friends now
Tabs
this song was written in tears because i found out that im leaving my home in Va and moving to washington state, so thats why it is on the mellower side, musicly, but it is a very heavy song to me, so yeah, its in standard tuning, on an acoustic preferably, so here ya go

i was the unwanted one
|---------------|
|----3-------3--|
|--2---2---2---2|
|0-------0------|
|---------------|
|---------------|

i felt so lonely
|---------------|
|----5-------5--|
|--3---3---3---3|
|0-------0------|
|---------------|
|---------------|

i had no one i considered my friend
|----------------------------------|
|----8-------8-7-5-3-3-------------|
|--5---5---5---------2-------------|
|0-------0-----------0-------------|
|----------------------------------|
|----------------------------------|

after a while
|---------------|
|----3-------3--|
|--2---2---2---2|
|0-------0------|
|---------------|
|---------------|

some got to know me
|---------------|
|----5-------5--|
|--3---3---3---3|
|0-------0------|
|---------------|
|---------------|

and i wonder if ill see them again
|----------------------------------|
|----8-------8-7-5-3-3-------------|
|--5---5---5---------2-------------|
|0-------0-----------0-------------|
|----------------------------------|
|----------------------------------|

i sit here thinking
|---------------|
|----3-------3--|
|--2---2---2---2|
|0-------0------|
|---------------|
|---------------|

thinking and crying
|---------------|
|----5-------5--|
|--3---3---3---3|
|0-------0------|
|---------------|
|---------------|


remebering all the good times we had
|----------------------------------|
|----8-------8-7-5-3-3-------------|
|--5---5---5---------2-------------|
|0-------0-----------0-------------|
|----------------------------------|
|----------------------------------|

my ***in head hurts
|---------------|
|----3-------3--|
|--2---2---2---2|
|0-------0------|
|---------------|
|---------------|

it feels like im dying
|---------------|
|----5-------5--|
|--3---3---3---3|
|0-------0------|
|---------------|
|---------------|


though i feel i should be glad that
|----------------------------------|
|----8-------8-7-5-3-3-------------|
|--5---5---5---------2-------------|
|0-------0-----------0-------------|
|----------------------------------|
|----------------------------------|

strum the rest
G			    A
i had someone whod be there when i needed a shoulder
D		         Bm
people who listened when my life was hell
G		    A
persons who made me feel whole lots better
D	      B7
now i have to bid them farwell
G
i just wanna say thank you
A
for all the times you guys were there
D
all the times you listened
Bm
even when you didnt care
G
ill love you guys forever
A
that i guaruntee
D
cus if it wasnt for my friends
B7
i wouldnt be me
G
i just wanna say thank you
A
thanks to you all
D
youve all impacted my life
Bm
no matter how big or small
G
i just wanna say thank you
A
time for this song to end
D
just wanna give a big thanks
  G      A     D
a thanks to my friends





Comments


Popular Unsigned tabs & chords
Anti Felon - Always Watching Bass Tabs
Fuzzy Bunny - Level Bass Tabs
Idle Work - That One We Always Play Bass Tabs
Staple Gun Wars-My Sister Em Bass Tabs
Alloftheabove - Our Friend Jim Tabs
Broad 04 - Free Tabs
Circuit 69er-Waiting Tabs
Fernands Band - Mr. Haug Tabs
Gthreec-Collission Tabs
Makeshift - Spiral Tabs


Song lyrics



↑ Back to top | Tablatures and chords are parodies/interpretations of the original songs. You may use it for private study, scholarship, research or language learning purposes only
© 2014 AZChords.com Contact us | Privacy policy | DMCA | Add/correct tabs | Request tabs | Top 50 tabs