» » »

Unsigned, Mockingbird- The Fence Bass tabs (ver.1)

Artists:  A B C D E F G H I J K L M N O P Q R S T U V W X Y Z # 

Mockingbird- The Fence Bass tabs (ver.1)

Unsigned Tabs
Rating:
0/5 (0 votes)
Mockingbird- The Fence lessons Tabs too difficult? Try these video lessons and learn fast
                ------0------------4----------------
--------5-2-4----------------2-----
-----------------------5-4----------
-------------------------------------



---------12-10----------------
-----10---------12-10--------
--------------------------------
---------------------------------


------3332-------------------
-------------320-0-2320----
-------------------------------
-------------------------------




---------75-----------------------
-----55-----75--------7/11--7--
-----------------------------------
----------------------------------



---------55--33---------
----3-3-------------------
-------------------------
------------------------


-55---------------------
----------5/7--4-2-----
-----33-----------------
------------------------


--------------------------320--
----33-2-----2-0---2-3------
----------3---------------------
--------------------------------
---10-10-12-10/8-------



--10-10-12----------------------
--------------10-12--10-12-9-8-
--------------------------------
--------------------------------


--15b-19b-----------------------------
--------------15b-19b------------------
-------------------------19b-15b-17b-
-------------------------------------------


-30------------------------5-1------------
-----31-0---------3-0--3-----------53----
------------3-2-0--------------------------
---------------------------------------------


---------------------------------------------
-----------0h6h5h6h5--0h5h4h5h4—04h3h4h3—0h3h2h3h2----
---------------------------------------------
---------------------------------------------

------14-12---------------
---------------14/12b-/7--
-12b----------------------
---------------------------
            
Submit corrections

comments powered by Disqus
↑ Back to top | Unsigned Bass for Mockingbird- The Fence. Lyrics for acoustic guitar and electric guitar. Tablatures and chords are parodies/interpretations of the original songs. You may use it for private study, scholarship, research or language learning purposes only