» » »

Unsigned, Misused Innocence - A.F.U. Tabs (ver.1)

Artists:  A B C D E F G H I J K L M N O P Q R S T U V W X Y Z # 

Misused Innocence - A.F.U. Tabs (ver.1)

Unsigned Tabs
Rating:
0/5 (0 votes)
Hard to play? Try these video lessons and learn fast.
                INTRO
Eb -----------------------------------------------------------------
Bb -----------------------------------------------------------------
Gb -----------------------------------------------------------------
Db ---------7-7-7-7-9-9-9-9-7-7-7-6---------7-7-7-7-9-9-9-9-7-7-7-6-
Ab -7-7-7-7-5-5-5-5-7-7-7-7-5-5-5-4-7-7-7-7-5-5-5-5-7-7-7-7-5-5-5-4-
Eb -5-5-5-5-------------------------5-5-5-5------------------------- 2X
P.M....   .....   .....   .         ....  .....   .....   .
VERSE 1
Eb -----------------------------------------------------------------
Bb -----------------------------------------------------------------
Gb -----------------------------------------------------------------
Db ---------7-7-7-7-9-9-9-9-7-7-7-6---------7-7-7-7-9-9-9-9-7-7-7-6-
Ab -7-7-7-7-5-5-5-5-7-7-7-7-5-5-5-4-7-7-7-7-5-5-5-5-7-7-7-7-5-5-5-4-
Eb -5-5-5-5-------------------------5-5-5-5------------------------- 2X
P.M....   .....   .....   .         ....  .....   .....   .
FILL 1
Eb -----------------------------------------------------------------
Bb -----------------------------------------------------------------
Gb -----------------------------------------------------------------
Db ---------7-7-7-7-9-9-9-9-----------------7-7-7-7-9-9-9-9---------
Ab -7-7-7-7-5-5-5-5-7-7-7-7-5-5-5-6-7-7-7-7-5-5-5-5-7-7-7-7-5-5-5-6-
Eb -5-5-5-5-----------------3-3-3-4-5-5-5-5-----------------3-3-3-4- 2X
CHORUS
Eb -----------------------------------------------------------------------
Bb -----------------------------------------------------------------------
Gb -----------------------------------------------------------------------
Db ----------9-9-9999----------7-x---7----------9-9-9999----------7-x---7-
Ab -7-7-7777-7-7-7777-5-5-5555-5-x5-x5-7-7-7777-7-7-7777-5-5-5555-5-x5-x5-
Eb -5-5-5555----------3-3-3333----3-x--5-5-5555----------3-3-3333----3-x--
            

comments powered by Disqus
↑ Back to top | Unsigned Tabs for Misused Innocence - A.F.U.. Lyrics for acoustic guitar and electric guitar. Tablatures and chords are parodies/interpretations of the original songs. You may use it for private study, scholarship, research or language learning purposes only