» » »

Unsigned, Miraclegrow - No Second Chance Tabs (ver.1)

Artists:  A B C D E F G H I J K L M N O P Q R S T U V W X Y Z # 

Miraclegrow - No Second Chance Tabs (ver.1)

Unsigned Tabs
Rating:
0/5 (0 votes)
Miraclegrow - No Second Chance lessons Tabs too difficult? Try these video lessons and learn fast
                Miracle Grow - No Second Chance
e-------------------------------    Intro x2
B-------------------------------
G--555--5-----------------------
D--555--5-222--2--333--3--555--5
A--333--3-222--2--333--3--555--5
E---------000--0--111--1--333--3
   xxx    xxx     xxx     xxx

e-----------------------------------------------------------------  Verse x2
B-----------------------------------------------------------------
G----5-4-0---5-4-0---5-4-0---5-4-0---5-4-0---5-4-0---5-4-0---5-4-0
D-----------------------------------------------------------------
A--3-------3------------------------------------------------------
E-----------------3--------3-------5-------5-------3-------3------
 
e-----------------            Chorus x4
B-----------------
G--555-444--------
D--555-444-333-555
A--333-222-333-555
E----------111-333

Versex2

Chorusx8

I'll add the breakdown and the after the breakdown parts after PEACE!
            

comments powered by Disqus
↑ Back to top | Unsigned Tabs for Miraclegrow - No Second Chance. Lyrics for acoustic guitar and electric guitar. Tablatures and chords are parodies/interpretations of the original songs. You may use it for private study, scholarship, research or language learning purposes only