» » »

Mindclamp- Rebirth Tabs (ver.1)

Artists:  A B C D E F G H I J K L M N O P Q R S T U V W X Y Z # 

Mindclamp- Rebirth Tabs (ver.1)

Unsigned
Rating:
0/5 (0 votes)

Hard to play? Try these video lessons and learn fast.
                EADGBE

Intro
E|---------------------------------|-------------5-------4-4-2--------|
B|---------------------------------|--------------5------5-5-3--------|
G|--1-------2-------1-------2---0--|---------7-----7-----4-4-2---2h4--|
D|--2-------4-------2-------0---2--|-----4p2-7-------6---6-6-4--------|
A|--2-------5-------4-------3---3--|---------5-------4-------2--------|
E|---------------------------------|-0--------------------------------|

Verse
E|--0--|--9-----9---9-------|--0--|-------------------|
B|--0--|--7-----7---7-------|--0--|-------------------|
G|--1--|--6-----6---6-------|--1--|-------------------|
D|--2--|--------------------|--2--|--7-----6---4------|
A|--0--|--------------------|--0--|-------------------|
E|-----|--------------------|-----|-------------------|

  --0--|--9-----9---7-------|--0--|-------------------|
  --0--|--7-----------------|--0--|-------------------|
  --1--|--6-----------------|--1--|-------------------|
  --2--|--------------------|--2--|--7-----6---4------|
  --0--|--------------------|--0--|-------------------|
  -----|--------------------|-----|-------------------|

Chorus
E|--------------------------------------------------------------------
B|--------------------------------------------------------------7-----
G|--6---6---4-------4--4----2-------6---6---4-------2/4----4/6--------
D|--4---4-----7-6-7-2--2------4-0-4-4---4-----7-6-7-------------------
A|--------------------------------------------------------------------
E|--------------------------------------------------------------------

  --------------------------------------------------------------------|
  --------------------------------------------------------------------|
  --6---6---4-------4--4----2-------6---6---4-------------------------|
  --4---4-----7-6-7-2--2------4-0-4-4---4-----7-6-7-4/6----2/4--------|
  --------------------------------------------------------------------|
  --------------------------------------------------------------------|



Bridge
E|-----------------|------------------|------------------|-----------|
B|-----------------|------------------|------------------|-----------|
G|-------------13--|--------------14--|--------------13--|-----------|
D|-vol. swell -----|-vol. swell --12--|--vol. swell -11--|--14-------|
A|-------------14--|------------------|------------------|--15-------|
E|-----------------|------------------|------------------|-vol. swell|

Alright, I tabbed this one out because it was requested so enjoy.  I’m not tabbing
out the solo though.  This band isn’t too big but they're really good so check out
hxcmp3.com/mindclamp or mindclamp.tk.
            
Hard to play? Try these video lessons and learn fast. | Correct




comments powered by Disqus
↑ Back to top | Tablatures and chords are parodies/interpretations of the original songs. You may use it for private study, scholarship, research or language learning purposes only