» » »

Unsigned, Mental Action - Youre So Hot Tabs (ver.1)

Artists:  A B C D E F G H I J K L M N O P Q R S T U V W X Y Z # 

Mental Action - Youre So Hot Tabs (ver.1)

Unsigned Tabs
Rating:
0/5 (0 votes)
Mental Action - Youre So Hot lessons Tabs too difficult? Try these video lessons and learn fast
                I wrote this song for a girl at my school.  It's pretty Easy.
Standard Tuning
Here we go

Intro: Heavy Distortion
e --------------------------------
b --------------------------------
g --------------------------------
d --------------------------------
a --------------------------------
e 7--5--3--7-5-3--7--5--3--7-5-3--

e --------------------------------
b --------------------------------
g --------------------------------
d --------------------------------
a --------------------------------
e 9--7--5--9-7-5--9--7--5--9-7-5--

e --------------------------------
b --------------------------------
g --------------------------------
d --------------------------------
e 7--5--3--7-5-3--7--5--3--7-5-3--

Verse 1: Slighted Muted With Distortion x4
e -----------------------
b -----------------------
g -----------------------
d -----------------------
a 7777777-5555555-3333333       x4 (let last note ring last time)
e 5555555-3333333-1111111

Pre-Chorus
e -----------------------------------
b -----------------------------------
g -----------------------------------
d 55555555-77777777-55555555-99999999
a 55555555-77777777-55555555-99999999
e 33333333-55555555-33333333-77777777

Chorus: Heavy Distortion
e --------------------------------
b --------------------------------
g --------------------------------
d --------------------------------
a --------------------------------
e 7--5--3--7-5-3--7--5--3--7-5-3--

e --------------------------------
b --------------------------------
g --------------------------------
d --------------------------------
a --------------------------------
e 9--7--5--9-7-5--9--7--5--9-7-5--

e --------------------------------
b --------------------------------
g --------------------------------
d --------------------------------
e 7--5--3--7-5-3--7--5--3--7-5-3--

Verse 2: Slighted Muted With Distortion x4
e -----------------------
b -----------------------
g -----------------------
d -----------------------
a 7777777-5555555-3333333       x4 (let last note ring last time)
e 5555555-3333333-1111111

Pre-Chorus Heavy Distortion
e -----------------------------------
b -----------------------------------
g -----------------------------------
d 55555555-77777777-55555555-99999999
a 55555555-77777777-55555555-99999999
e 33333333-55555555-33333333-77777777

Chorus: Heavy Distortion x2
e --------------------------------
b --------------------------------
g --------------------------------
d --------------------------------
a --------------------------------
e 7--5--3--7-5-3--7--5--3--7-5-3--

e --------------------------------
b --------------------------------
g --------------------------------
d --------------------------------
a --------------------------------
e 9--7--5--9-7-5--9--7--5--9-7-5--

e --------------------------------
b --------------------------------
g --------------------------------
d --------------------------------
e 7--5--3--7-5-3--7--5--3--7-5-3--

Order:
Intro
Verse 1
Pre-Chorus
Chorus
Verse 2
Pre-Chorus
Chorus x2
            

comments powered by Disqus
↑ Back to top | Unsigned Tabs for Mental Action - Youre So Hot. Lyrics for acoustic guitar and electric guitar. Tablatures and chords are parodies/interpretations of the original songs. You may use it for private study, scholarship, research or language learning purposes only