» » »

Mellow Song Tabs (ver.1)

Artists:  A B C D E F G H I J K L M N O P Q R S T U V W X Y Z # 

Mellow Song Tabs (ver.1)

Unsigned
Rating:
0/5 (0 votes)

Hard to play? Try these video lessons and learn fast.
                E||-------------------------|-------------------------|-----------------------|
B||--------3----------------|--3----------------3-----|--0----0--5----5--7----|
G||--0--2-----2--0----0--2--|-----2--0----0--2-----2--|--0----0--5----5-------|
D||-------------------------|-------------------------|------------------0----|
A||-------------------------|-------------------------|-----------------------|
E||-------------------------|-------------------------|-----------------------|


                                                                                
-------------------------|--------------------------|--------------------------|
--7--8--------0----0-----|-----8--------0--------8--|--12--8--------0----0--5--|
--------7--5----------5--|--7-----7--5-----5--7-----|---------7--5--0----0--5--|
--0----------------------|--------------------------|--------------------------|
-------------------------|--------------------------|--------------------------|
-------------------------|--------------------------|--------------------------|


                                       
------------------------|------------||
----5--7----7--------7--|--8----8----||
----5-------------0-----|-------0----||
-------0----0--0--------|-------0----||
------------------------|------------||
------------------------|------------||
            
Hard to play? Try these video lessons and learn fast. | Correct




comments powered by Disqus
↑ Back to top | Tablatures and chords are parodies/interpretations of the original songs. You may use it for private study, scholarship, research or language learning purposes only