» » »

Meany - She Girl Tabs (ver.1)

Artists:  A B C D E F G H I J K L M N O P Q R S T U V W X Y Z # 

Meany - She Girl Tabs (ver.1)

Unsigned
Rating:
0/5 (0 votes)

Hard to play? Try these video lessons and learn fast.
                For lead guitar


intro:x2

|---------------------------------------------------------------------------|
|---------------------------------------------------------------------------|
|---------------------------------------------------------------------------|
|-00-4h5p4-7-5-4-0----4h5p4-7-5-4-0----4h5p4-7-5-4-0----4h5p4-7-5-4-0-------|
|------------------44---------------22---------------00---------------------|
|---------------------------------------------------------------------------|



verse:x4 do't muted last 2 chords 4th time through

|---------------------------------------------------------------------------|
|---------------------------------------------------------------------------|
|-----7*--------------------------------------------------------------------|
|-----7-----------7*----------2*----------5*----------7*--------------------|
|-----5-----------7-----------2-----------5-----------7---------------------|
|-----------------5-----------0-----------3-----------5---------------------|
pm:   ^^^^^^^^^^^^^^^^^^^^^^^^^^^^^^^^^^^^^^^^^^^^^^^^^^^^^^^^^^^^^^^^^^^^^^
            
Hard to play? Try these video lessons and learn fast. | Correct




comments powered by Disqus
↑ Back to top | Tablatures and chords are parodies/interpretations of the original songs. You may use it for private study, scholarship, research or language learning purposes only