» » »

Marshmallow Kids - Disgrace Tabs (ver.1)

Artists:  A B C D E F G H I J K L M N O P Q R S T U V W X Y Z # 

Marshmallow Kids - Disgrace Tabs (ver.1)

Unsigned
Rating:
0/5 (0 votes)

Hard to play? Try these video lessons and learn fast.
                <Verse
E|-------------------------------------|
B|-------------------------------------|
G|-------------5---5-------------------|
D|-7---7-3---3-5---5-5---5-------------| x2
A|-7---7-3---3-3---3-5---5-------------|
E|-5---5-1---1-------3---3-------------|Verse
E|-------------------------------------|
B|-------------------------------------|
G|-------------5---5-------------------|
D|-7---7-3---3-5---5-5---5-------------| x2
A|-7---7-3---3-3---3-5---5-------------|
E|-5---5-1---1-------3---3-------------|Verse
E|-------------------------------------|
B|-------------------------------------|
G|-------------5---5-------------------|
D|-7---7-3---3-5---5-5---5-------------| x2
A|-7---7-3---3-3---3-5---5-------------|
E|-5---5-1---1-------3---3-------------|Verse
E|-------------------------------------|
B|-------------------------------------|
G|-------------5---5-------------------|
D|-7---7-3---3-5---5-5---5-------------| x2
A|-7---7-3---3-3---3-5---5-------------|
E|-5---5-1---1-------3---3-------------|Verse
E|-------------------------------------|
B|-------------------------------------|
G|-------------5---5-------------------|
D|-7---7-3---3-5---5-5---5-------------| x2
A|-7---7-3---3-3---3-5---5-------------|
E|-5---5-1---1-------3---3-------------|Verse
E|-------------------------------------|
B|-------------------------------------|
G|-------------5---5-------------------|
D|-7---7-3---3-5---5-5---5-------------| x2
A|-7---7-3---3-3---3-5---5-------------|
E|-5---5-1---1-------3---3-------------|
            
Hard to play? Try these video lessons and learn fast. | Correct




comments powered by Disqus
↑ Back to top | Tablatures and chords are parodies/interpretations of the original songs. You may use it for private study, scholarship, research or language learning purposes only