>
 >
Manix - No Answers

Manix - No Answers Guitar Tabs

Unsigned - Manix - No Answers chords, tabs, tablatures, lyrics

Guitar lessons | Add/correct | Request | Top 50 tabs Artists:  A B C D E F G H I J K L M N O P Q R S T U V W X Y Z 0-9

Manix - No Answers Guitar Tabs – Unsigned

CD, Sheet music, Poster

Do you like Manix - No Answers? Share with your friends now
Tabs
+   +   +   +     +   +   +   +     +   +   +   +     +   +   +   +  
e :-----------------------------------------------------------------------|
B :-----------------------------------------------------------------------|
G :-----------------------------------------------------------------------|
D :-44-44-44-4400-44-44-44-4422-44-44-44-4400--22-22-22-2244--x2----------|
A :-22-22-22-2200-22-22-22-2200-22-22-22-2200--00-00-00-0000--------------|
E :-----------------------------------------------------------------------|


   +   +   +   +     +   +   +   +     +   +   +   +     +   +   +   +  
e :-----------------------------------------------------------------------|
B :-----------------------------------------------------------------------|
G :-----------------------------------------------------------------------|
D :-9---5----7---------999999999--555555555--777777777--------------------|
A :-9---5----7---------999999999--555555555--777777777---------------------
E :-7---3----5---x2----777777777--333333333--555555555--------------------|


   +   +   +   +     +   +   +   +     +   +   +   +     +   +   +   +  
e :-----------------------------------|-----------------|-----------------|
B :-----------------------------------|-----------------|-----------------|
G :---------8-------------------------|-----------------|-----------------|
D :-999999999--5555--777777-----------|-----------------|-----------------|
A :-999999999--5555--777777-----------|-----------------|-----------------|
E :-77777777---3333--555555-----------|-----------------|-----------------|


   +   +   +   +     +   +   +   +     +   +   +   +     +   +   +   +  
e :-----------------------------------------------------|-----------------|
B :-----------------------------------------------------|-----------------|
G :-----------------------------------------------------|-----------------|
D :-4444444444--4444444420-4444444402-2222222240--------|-----------------|
A :-2222222222------------------------------------------|-----------------|
E :-----------------------------------------------------|-----------------|



   +   +   +   +     +   +   +   +     +   +   +   +     +   +   +   +  
e :-----------------------------------------------------------------------|
B :-----------------------------------------------------------------------|
G :-----------------------------------------------------------------------|
D :--4444444444--2222222222-4444444444--4444444444------------------------|
A :--2222222222--0000000000-2222222222--0000000000------x4----------------|
E :-----------------------------------------------------------------------|


   +   +   +   +     +   +   +   +     +   +   +   +     +   +   +   +  
e :-------------------------------------------------------|-----------------|
B :-------------------------------------------------------|-----------------|
G :-------------------------------------------------------|-----------------|
D :---4444444444--2222222244--4444444444--2222222224------|-----------------|
A :---2222222222--0000000000--0000000000--0000000000------|-----------------|
E :-------------------------------------------------------|-----------------|





Comments


Popular Unsigned tabs & chords
Authentic Tradition - The Getaway Bass Tabs
False Reality - Breakup Bass Tabs
Sk8punkers - Jam Bass Tabs
Tito And Swan - Get A Guitar Bass Tabs
5ive Pm Untitled Guitar Tabs
Band-Mourning Death Song-Saddness Tabs
Downward Spiral- Bass Guitar Doodle Tabs
Egoshed-The Dark Inside Us Tabs
Handicap Stilts- School Spirit Tabs
Jsi---Broken Vcr Tabs


Song lyrics



↑ Back to top | Tablatures and chords are parodies/interpretations of the original songs. You may use it for private study, scholarship, research or language learning purposes only
© 2014 AZChords.com Contact us | Privacy policy | DMCA | Add/correct tabs | Request tabs | Top 50 tabs