>
 >
Maleko - Untitled

Maleko - Untitled Guitar Tabs

Unsigned - Maleko - Untitled chords, tabs, tablatures, lyrics

Guitar lessons | Add/correct | Request | Top 50 tabs Artists:  A B C D E F G H I J K L M N O P Q R S T U V W X Y Z 0-9

Maleko - Untitled Guitar Tabs – Unsigned

CD, Sheet music, Poster

Do you like Maleko - Untitled? Share with your friends now
Tabs
Gtr I (E A D G B E) - 'Untitled'

 4/4
  Gtr I
  Q Q Q Q Q Q Q Q Q Q Q Q Q Q Q Q Q Q Q Q Q Q Q Q T T T T T T T T H
|-------------1-0----------------------------------------------------|
|-1---0-1-1-------1---0-1-1-------0-----0----------------------------|
|---2-------2-------2-------2-----1---1------------------------------|
|-----------------------------3-2-2-2-----2-3-2-0-0-2-3-2-0----------|
|-0-------0-------0-------0---------------------------------3-2-0----|
|-----3---------------3-------------------------------------------4--|


  T T T T T T T T H E E E E E E E E
|-5-7-8-7-5-----------5-------5-7-8----|
|-----------8-6-5-----5-9-----5--------|
|-----------------7-------9------------|
|-------------------7-------7----------|
|-------------------7-------7----------|
|-------------------5-------5----------|


 4/4
  Gtr I
  E E E E E E E E E E E E E E E E H    E E E E E E E E Q  Q
|-------0---------------0------------------------0-1-3-1--0----|
|-1-------1---1---3-------3---3---0--------0-1-3---------------|
|---0-------0---0---2-------2---2------1-2---------------------|
|-----2---------------0----------------------------------------|
|-0-------------------------------2----------------------------|
|-----------------2---------------0----------------------------|
                                                       Q


  E E E E E E E E E E E E E E E E H    E E E E E E E E Q  Q
|-------0---------------0--------------5-7-8-7-5---------------|
|-1-------1---1---3-------3---3---0--------------8-6-5-3--1----|
|---0-------0---0---2-------2---2------------------------------|
|-----2---------------0----------------------------------------|
|-0-------------------------------2----------------------------|
|-----------------2---------------0----------------------------|
                                                       Q


  E E E E E E E E E E E E E E E E H    E E E E E E E E Q Q
|-------0---------------0------------------------0-1-3-5-7----|
|-1-------1---1---3-------3---3---0--------0-1-3--------------|
|---0-------0---0---2-------2---2------1-2--------------------|
|-----2---------------0---------------------------------------|
|-0-------------------------------2---------------------------|
|-----------------2---------------0---------------------------|


  E E E E E E Q  E E E E E E Q  E E E E E E Q  E E E E E E E E
|-8-----8-----7-----------------7-----7-----3--1-----0------------|
|---5-----5------8-----6-----6----3-----3--------0-----0---3------|
|-----5-----5------5-----5----------4-----4--------0-----0---0----|
|--------------------7-----7--------------------------------------|
|----------------5-----------------------------0-----3-----2------|
|-5-----------------------------3---------------------------------|


  E E E E E E E E E E E E E E E E  W
|-------0---------------3---------^0----|
|-1-------1---1---3-------3---3---^0----|
|---0-------0---0---0-------0---0-^1----|
|-----2---------------0-----------^2----|
|-0---------------2---------------^2----|
|---------------------------------^0----|
                                   W


Duration Legend
---------------
W - whole; H - half; Q - quarter; E - 8th; S - 16th; T - 32nd; X - 64th; a - acciaccatura
+ - note tied to previous; . - note dotted; .. - note double dotted
Uncapitalized letters represent notes that are staccato (1/2 duration)
Irregular groupings are notated above the duration line
Duration letters will always appear directly above the note/fret number it represents the
duration for.  Duration letters with no fret number below them represent rests.  Multi-
bar rests are notated in the form Wxn, where n is the number of bars to rest for.  Low
melody durations appear below the staff





Comments


Popular Unsigned tabs & chords
1-11 Bass Tabs
Desudo - Without A Sound Bass Tabs
Dimensions End - Desolate Bass Tabs
Lithium - Lazy Boy Bass Tabs
Sixdaystoyesterday - Thermalvalentine Bass Tabs
Suicide Method - Demonic Justice Bass Tabs
Triskiadekaphobia - Lmls Do It Better Bass Tabs
Ace-Untitled Tabs
Dagahzed- Inconceived Tabs
Hagama - Goodbye Tabs


Song lyrics



↑ Back to top | Tablatures and chords are parodies/interpretations of the original songs. You may use it for private study, scholarship, research or language learning purposes only
© 2014 AZChords.com Contact us | Privacy policy | DMCA | Add/correct tabs | Request tabs | Top 50 tabs