» » »

Less Than Nothing - Untitled Bass tabs (ver.1)

Artists:  A B C D E F G H I J K L M N O P Q R S T U V W X Y Z # 

Less Than Nothing - Untitled Bass tabs (ver.1)

Unsigned
Rating:
0/5 (0 votes)

Tabs too difficult? Try these video lessons and learn fast.
                Intro:
G--------------------------------------------
D--------------------------------------------
A--5-----------------------------------------
E------5----3-----7---5----------------------

Verse:
G---------------------------------------------------
D---------------------------------------------------
A--555555555----------------------------------------
E-------------555555555----333333333-----7777---5555

Chorus:
G---------------------------------------------------
D---------------------------------------------------
A--5555555555555555---------------------------------
E----------------------555555555---------7777---5555

Chorus: (continued)
G---------------------------------------------------
D---------------------------------------------------
A--55555555---77777777------------------------------
E------------------------77777777---55555555--------

Bridge:
G---------------------------------------------------
D---070---------------------------------------------
A-5-------070-----050-----09-----07-----------------
E-------5-------3-------7------5--------------------

Song Order:
Intro  2x
Verse  2x
Intro  2x
Verse  2x
Chorus 2x
Intro  2x
Verse  2x
Chorus 2x
Bridge 2x
Chorus 2x
Intro  4x
End on A-5

This song kicks ass so rate it!
            
Tabs too difficult? Try these video lessons and learn fast.


comments powered by Disqus
↑ Back to top | Tablatures and chords are parodies/interpretations of the original songs. You may use it for private study, scholarship, research or language learning purposes only