» » »

Less Than Nothing - Show & Tell Bass tabs (ver.1)

Artists:  A B C D E F G H I J K L M N O P Q R S T U V W X Y Z # 

Less Than Nothing - Show & Tell Bass tabs (ver.1)

Unsigned
Rating:
0/5 (0 votes)

Hard to play? Try these video lessons and learn fast.
                Intro:
G---------------------------------------------------------------
D--00-7-0-5-0-74--00-7-0-5-0-74--00-7-0-5-0-74--0-7-5-4-5-7-4-0-
A---------------------------------------------------------------
E---------------------------------------------------------------

Pre-verse
G-------------------
D-------------------
A--5555555555555555-
E-------------------

Verse:
G-----------------------------------------
D---------------------------------77---55-
A--55555555--------------10(8x)-----------
E-------------33333333--------------------

Interlude:
G-------------------
D-------77-------55-
A-------------------
E--55-------33------

Chorus:
G--------------------------------------------
D--------------------------------------------
A--55555555--------------77777777------------
E-------------77777777--------------55555555-

Song Order:
Intro  2x
Pre-verse
Verse  2x
Interlude
Verse  2x
Chorus 2x
Intro  2x
Pre-verse
Verse  2x
Drum Solo
Verse  2x
Chorus 2x
End on A-5

This song kicks ass so rate it!
            
Hard to play? Try these video lessons and learn fast. | Correct




comments powered by Disqus
↑ Back to top | Tablatures and chords are parodies/interpretations of the original songs. You may use it for private study, scholarship, research or language learning purposes only