» » »

Lead Dove- Seed Tabs (ver.1)

Artists:  A B C D E F G H I J K L M N O P Q R S T U V W X Y Z # 

Lead Dove- Seed Tabs (ver.1)

Unsigned
Rating:
0/5 (0 votes)

Hard to play? Try these video lessons and learn fast.
                this is my first tab please rate it!!!
Lead Dove=Dead Love baby
intro
------------------------------------
------------------------------------
------------------------------------
-x-x-x-x-x-x-x-x-x-x-x-x-x--7-7-7---
-x-x-x-x-x-x-x-x-x-x-x-x-x--7-7-7---
-x-x-x-x-x-x-x-x-x-x-x-x-x--5-5-5---


verse 
----------------------------------------------------------7-7-7----------
-7-7-7-7--6-6-6-6--7-7-7--2-2-2--7-7-7-7--6-6-6-6--7-7-7--7-7-7----------
-7-7-7-7--6-6-6-6--7-7-7--2-2-2--7-7-7-7--6-6-6-6--7-7-7--5-5-5----------
-5-5-5-5--4-4-4-4--5-5-5--0-0-0--5-5-5-5--4-4-4-4--5-5-5-----------------   x 4



Bridge
--7-7-7-7-7-7--6-6-6-6-6-6--10-10-10-10-10-10--9-9-9--8-8-8--------------
--5-5-0-5-5-5--4-4-0-4-4-4---8--8--0--8--8--8--7-7-7--6-6-6--------------  x 2


chorus
-------------------6-6-6--5-5-5------------------------------------------
-7-7-7-7--6-6-6-6--6-6-6--5-5-5------------------------------------------
-7-7-7-7--6-6-6-6--4-4-4--3-3-3------------------------------------------
-5-5-5-5--4-4-4-4--------------------------------------------------------   x 2


Sex Drugs and rock and roll forever!!!
            
Hard to play? Try these video lessons and learn fast. | Correct




comments powered by Disqus
↑ Back to top | Tablatures and chords are parodies/interpretations of the original songs. You may use it for private study, scholarship, research or language learning purposes only