» » »

Unsigned, Last Ones To Heaven - Untitled Tabs (ver.1)

Artists:  A B C D E F G H I J K L M N O P Q R S T U V W X Y Z # 

Last Ones To Heaven - Untitled Tabs (ver.1)

Unsigned Tabs
 Rating:
4/5 (4 votes)
Last Ones To Heaven - Untitled lessons Tabs too difficult? Try these video lessons and learn fast
                Band name: Last Ones to Heaven
Song name: Untitled(Interlude)
   Tuning: Drop D


Hi  E-----------------------------------------
    B-----------------------------------------
    G-----------------------------------------
    D-----------------------------------------
    A---9---9---9---9-7-5---5---5---5---5-5-3-
Low D-9---9---9---9-------5---5---5---5-------

Hi  E-----------------------------------------
    B-----------------------------------------
    G-----------------------------------------
    D-----------------------------------------
    A---2---2---2---2-2-3---5---5---7---7-----
Low D-2---2---2---2-------5---5---7---7-------

Hi  E-----------------------------------------
    B-----------------------------------------
    G-----------------------------------------
    D-----------------------------------------
    A---9---9---9---9-9-7---5---5---5---5-5-3-
Low D-9---9---9---9---9-7-5---5---5---5---5-3-

Hi  E------------------------------------------
    B------------------------------------------
    G------------------------------------------
    D------------------------------------------
    A---2---2---2---2-2-3-55-55-77-77-999999999
Low D-2---2---2---2---2-3-55-55-77-77-999999999

Hi  E-----------------------------------------
    B-----------------------------------------
    G-----------------------------------------
    D-----------------------------------------
    A-7-55-55-77-77---9---9-------------------
Low D-7-55-55-77-77-9---9---------------------
            
Submit corrections

comments powered by Disqus
↑ Back to top | Unsigned Tabs for Last Ones To Heaven - Untitled. Lyrics for acoustic guitar and electric guitar. Tablatures and chords are parodies/interpretations of the original songs. You may use it for private study, scholarship, research or language learning purposes only