>
 >
Lastdown - Why Dont You Care

Lastdown - Why Dont You Care Guitar Tabs

Unsigned - Lastdown - Why Dont You Care chords, tabs, tablatures, lyrics

Guitar lessons | Add/correct | Request | Top 50 tabs Artists:  A B C D E F G H I J K L M N O P Q R S T U V W X Y Z 0-9

Lastdown - Why Dont You Care Guitar Tabs – Unsigned

CD, Sheet music, Poster

Do you like Lastdown - Why Dont You Care? Share with your friends now
Tabs
///***LAST DOWN***\\\
Why don't you care??

Main Riff
e|------------------------10----------|
B|------9-----10------12-----12-10--9-|
G|--9-9---9-9----9-9------------------|
D|------------------------------------|
A|------------------------------------|
E|------------------------------------|

Intro/Outro Chords
e|------------------------------------|
B|------------------------------------|
G|--7/9-9-9-9-9-9-9-9-9-9-9-9-9-9-9-9-|
D|--7/9-9-9-9-9-9-9-9-9-9-9-9-9-9-9-9-|
A|--5/7-7-7-7-7-7-7-7-7-7-7-7-7-7-7-7-|
E|------------------------------------|

e|------------------------------------|
B|------------------------------------|
G|--5-5-5-5-5-5-5-5--7-7-7-7-7-7-7-7--|
D|--5-5-5-5-5-5-5-5--7-7-7-7-7-7-7-7--|
A|--3-3-3-3-3-3-3-3--5-5-5-5-5-5-5-5--|
E|----------------------------------PS|
Verse
e|------------------------------------|
B|------------------------------------|
G|--9--9-9-9--------------------------|
D|--9--9-9-9--9-9-9-9-9-9--11-11-11-11|
A|--7--7-7-7--9-9-9-9-9-9--11-11-11-11|
E|------------7-7-7-7-7-7--9--9-9-9--9|

e|------------------------------------|
B|------------------------------------|
G|------------------------------------|
D|--7-7-7-9-9-9------x4---------------|
A|--7-7-7-9-9-9-----------------------|
E|--5-5-5-7-7-7-----------------------|
Pre-chorus
e|------------------------------------|
B|------------------------------------|
G|--------9---------------------------|
D|--------9-x2-------9----------11----|
A|--7--7--7----------9--x2------11-x2-|
E|-------------7--7--7-----9--9--9----|
_____PM_________PM__________PM________

e|------------------------------------|
B|------------------------------------|
G|------------------------------------|
D|--------7---------9-----------------|x2
A|--------7---------9-----------------|
E|--5--5--5---7--7--7-----------------|
____PM_________PM____

Chorus
e|-------------------------------------|
B|-------------------------------------|
G|---------7-7--7-|9-9-9-9-9-9-9-9|----|
D|--5-5--5-7-7--7-|9-9-9-9-9-9-9-9|x2--|x4
A|--5-5--5-5-5--5-|7-7-7-7-7-7-7-7|----|
E|--3-3--3---------------------------PS|

Bridge  Army: (intro riff x4)

Sturb:
e|------------------------------------|
B|------------------------------------|
G|------9-----------------------------|
D|----9---9----9------9---------------|
A|--7-------7-------9---9---9---------|
E|----------------7-------7-----------|


e|------------------------------------|
B|------------------------------------|
G|------------------------------------|
D|---------11-------------------7-----|
A|-----11------11-----11-----7--------|
E|--9--------------9------5-----------|

e|------------------------------------|
B|------------------------------------|
G|------------------------------------|
D|-----------------x2-----------------|
A|--7---------------------------------|
E|----5-------------------------------|
Solo
Sturb
e|----------------12-----------------------|
B|----15^17-15^17---15-12------------------|
G|------------------------14^16-14-12H14P12|
D|-----------------------------------------|
A|-----------------------------------------|
E|-PS--------------------------------------|
<p>
e|-----------------------------------------|
B|-----------------------------------------|
G|---------12H14P12--------12H14P12--------|
D|-12H14P12--------12H14P12--------12H14P12|
A|-----------------------------------------|
E|-----------------------------------------|

e|----------------------------------------------|
B|---------------12-----12--15P14P12-15^17^15P12|
G|-12H14P12-14^16--12H14--14--------------------|
D|----------------------------------------------|
A|----------------------------------------------|
E|----------------------------------------------|

e|-15^17-15-12------------------------------|
B|-------------15-12------------------------|
G|-------------------14-14^16^14P12-12H14-12|
D|----------------------------------12H14-12|
A|------------------------------------------|
E|------------------------------------------|
Army
e|---15^17-12H15P12-12H15P12-12H15P12-|
B|------------------------------------|
G|------------------------------------|
D|------------------------------------|
A|------------------------------------|
E|------------------------------------|

e|------------------------------------|
B|--12H15P12-12H15P12-12H15P12--------|
G|------------------------------------|
D|------------------------------------|
A|------------------------------------|
E|------------------------------------|
<p>
e|-----------------------------------------|
B|-----------------------------------------|
G|-12H14P12H14P12H14P12H14P----12H14P12----|
D|--------------------------14----------14-|
A|-----------------------------------------|
E|-----------------------------------------|
<p>
e|-----------------------------------------|
B|---------------------15------------------|
G|--12H14P12-----14^16----14^16P12H14P12---|
D|-----------14----------------------------|
A|-----------------------------------------|
E|-----------------------------------------|
<p>
e|-------12-------12------12-12H15P12H15P12|
B|-12H15----12H15----12H15-----------------|
G|-----------------------------------------|
D|-----------------------------------------|
A|-----------------------------------------|
E|-----------------------------------------|

e|-----------------------------------------|
B|--12H15P12H15P12-----------------12-17^15|
G|-----------------12H14P12H14P12----------|
D|-----------------------------------------|
A|-----------------------------------------|
E|-----------------------------------------|
_____________________________________|Trem|_

Solo Backing Chords
e|---------------------------------------------|
B|---------------------------------------------|
G|-9----7----5-----------9----7----5-----------|
D|-9-x8-7-x8-5-x8-5------9-x8-7-x8-5-x8-5------|
A|-7----5----3----5--x8--7----5----3----5-x8---|
E|----------------3---------------------3------|
___PM___________________________________________

e|--------------------------------------------------|
B|--------------------------------------------------|
G|-9----7----5-----------9----7----5----5-----------|
D|-9-x8-7-x8-5-x8-5------9-x8-7-x8-5-x8-5-(let ring)|
A|-7----5----3----5--x8--7----5----3----3-----------|
E|----------------3---------------------------------|
___PM_________________________________
<p>Order of song:<p>
Intro<br>verse<br>pre-chorus<br>chorus<br>verse<br>pre-chorus<br>chorus<br>bridge<br>verse<br>pre-chorus<br>chorus<br>solo<br>break<br>chorus(x2)<br>Outro
<p>Key<br>H - hammer on<br>P - pull off<br>^ - bend<br>Trem - use tremolo





Comments


Popular Unsigned tabs & chords
Bruised And Broken Bass Tabs
Funkplant - O Bass Tabs
Lithium - Mr Fatigue Bass Tabs
Nmp - Why Did I Wait For You Bass Tabs
Suicide Method - Soul Addiction Bass Tabs
The Chaffes - Bungle Bass Tabs
Unspoken - Hopeless Thoughts Bass Tabs
Carpe Diem-Ballad Of The G-Funk Meltdown Tabs
Dayz Never Done-Shibby Tabs
Heather Tabs


Song lyrics



↑ Back to top | Tablatures and chords are parodies/interpretations of the original songs. You may use it for private study, scholarship, research or language learning purposes only
© 2014 AZChords.com Contact us | Privacy policy | DMCA | Add/correct tabs | Request tabs | Top 50 tabs