» » »

Laque - Its Time To Hit The Road Tabs (ver.1)

Artists:  A B C D E F G H I J K L M N O P Q R S T U V W X Y Z # 

Laque - Its Time To Hit The Road Tabs (ver.1)

Unsigned
Rating:
0/5 (0 votes)

Hard to play? Try these video lessons and learn fast.
                ----3--------3------------------1---------------------------------
----4--4--4--4-------0----0----6---1------------------------------
----3-----3-------------------------------------------------------
----2-------------------------------------------------------------
-------------------------------------0----------------------------
------------------------5---------------------------1-------0-----


----3--------3------------------1---------------------------------
----4--4--4--4-------0----0----6---1------------------------------
----3-----3-------------------------------------------------------
----2-------------------------------------------------------------
-------------------------------------0----------------------------
------------------------5---------------------------1-------0-----

----3--------3------------------1---------------------------------
----4--4--4--4-------0----0----6---1----------------------9-------
----3-----3-------------------------------------------------------
----2-------------------------------------------------------------
-------------------------------------0----------------------------
------------------------5---------------------------1-------0-----

----3--------3------------------1---------------------------------
----4--4--4--4-------0----0----6---1------------------------------
----3-----3----------------------------------(v.2 5)--------------
----2-------------------------------------------------------------
-------------------------------------0----------------------------
------------------------5---------------------------1-------0-----
            
Hard to play? Try these video lessons and learn fast. | Correct




comments powered by Disqus
↑ Back to top | Tablatures and chords are parodies/interpretations of the original songs. You may use it for private study, scholarship, research or language learning purposes only