>
 >
Kkkl

Kkkl Guitar Tabs

Unsigned - Kkkl chords, tabs, tablatures, lyrics

Guitar lessons | Add/correct | Request | Top 50 tabs Artists:  A B C D E F G H I J K L M N O P Q R S T U V W X Y Z 0-9

Kkkl Guitar Tabs – Unsigned

CD, Sheet music, Poster

Do you like Kkkl? Share with your friends now
Tabs
Riff A1 - (Guitar 1)

 D|------------------------------------------------------|-------------------------------------------------------|
 A|------------------------------------------------------|-------------------------------------------------------|
 F|------------------------------------------------------|-------------------------------------------------------|
 C|------------------------------------------------------|-------------------------------------------------------|
 G|-5---------------4---------------3---------------3--2-|-5---------------4---------------3---------------3--2--|
 D|-3-0-0-3h6p3-0-0-2-0-0-2h5p2-0-0-1-0-0-1h4p1-0-0-1--0-|-3-0-0-3h6p3-0-0-2-0-0-2h5p2-0-0-1-0-0-1h4p1-0-0-1--0--|


     Riff A1 - (Guitar 2)

 D|------------------------------------------------------|------------------------------------------------------|
 A|------------------------------------------------------|------------------------------------------------------|
 F|-----------------------%------------------------------|--------%--------------%---------------%--------------|
 C|------------------------------------------------------|------------------------------------------------------|
 G|------------------------------------------------------|-5--------------4---------------3---------------3--2--|
 D|------------------------------------------------------|-3--------------2---------------1---------------1--0--|





     Riff A2 - (Guitars 1 & 2)
			  			        4x
 D|-------------------------------------------------------|
 A|-------------------------------------------------------|
 F|-------------------------------------------------------|
 C|-------------------------------------------------------|
 G|-5---------------4---------------3---------------3--2--|
 D|-3-0-0-3h6p3-0-0-2-0-0-2h5p2-0-0-1-0-0-1h4p1-0-0-1--0--|





     Riff B - (Guitars 1 & 2)
			   			     4x
 D|----------------------------------------------------|
 A|----------------------------------------------------|
 F|----------------------------------------------------|
 C|----------------------------------------------------|
 G|-5--------------4--------------3--------------3--2--|
 D|-3-0-0-3h6p3--0-2-0-0-2h5p2--0-1-0-0-1h4p1--0-1--0--|
 pm . . .        . . . .        . . . .        . 




     Riff C - (Guitar 1)
												      		          2x
 D|-----------------------------------------------------------------|-------------------------------------------------------|
 A|-----------------------------------------------------------------|-------------------------------------------------------|
 F|-----------------------------------------------------------------|-------------------------------------------------------|
 C|-----------------------------------------------------------------|-------------------------------------------------(3ph~)|
 G|-5---------------4---------------3---------------5h8p5h8-3h6p3h6-|-5---------------4---------------3-----------6-5-------|
 D|-3-0-0-3h6p3-0-0-2-0-0-2h5p2-0-0-1-0-0-1h4p1-0-0-----------------|-3-0-0-3h6p3-0-0-2-0-0-2h5p2-0-0-1-0-0-1h4p1-4-3-------|
 pm													         . .


     Riff C - (Guitar 2)
															  2x
 D|-----------------------------------------------------------------|-------------------------------------------------------|
 A|-----------------------------------------------------------------|-------------------------------------------------------|  F|-----------------------------------------------------------------|-------------------------------------------------------|
 C|-------------------------------------------------4h7p4h7-2h5p2h5-|-------------------------------------------------------|
 G|-5--------------4---------------3--------------------------------|-5---------------4---------------3-----------6-5-(5ph~)|
 D|-3-0-0-3h6p3-0-0-2-0-0-2h5p2-0-0-1-0-0-1h4p1-0-0-----------------|-3-0-0-3h6p3-0-0-2-0-0-2h5p2-0-0-1-0-0-1h4p1-4-3-------|
 pm													         . .




     Riff D - (Guitar 1)

 D|---------------------9h12p9h12----------------------------------------------|
 A|-----------9h12p9h12-----------8h11p8h11------------------------------------|
 F|-----------------------------------------7h10p7h10--------------------------|
 C|-7h10p7h10-----------------------------------------7h10p7h10-6h9p6h9-(5ph~)-|
 G|----------------------------------------------------------------------------|
 D|----------------------------------------------------------------------------|


 D|---------------------9h12p9h12----------------------------------------------|
 A|-----------9h12p9h12-----------8h11p8h11------------------------------------|
 F|-----------------------------------------7h10p7h10-------------------(7ph~)-|
 C|-7h10p7h10-----------------------------------------7h10p7h10-6h9p6h9--------|
 G|----------------------------------------------------------------------------|
 D|----------------------------------------------------------------------------|


     Riff D - (Guitar 2)

 D|------------------------------------------------------------------|
 A|-----------------7h10p7h10----------------------------------------|
 F|---------6h9p6h9-----------5h8p5h8--------------------------------|
 C|-----------------------------------5h8p5h8------------------------|
 G|-5h8p5h8-----------------------------------5h8p5h8-4h7p4h7-(3ph~)-|
 D|------------------------------------------------------------------|


 D|------------------------------------------------------------------|
 A|-----------------7h10p7h10----------------------------------------|
 F|---------6h9p6h9-----------5h8p5h8--------------------------------|
 C|-----------------------------------5h8p5h8-----------------(5ph~)-|
 G|-5h8p5h8-----------------------------------5h8p5h8-4h7p4h7--------|
 D|------------------------------------------------------------------|






     Riff A1 - (Guitar 1)

 D|-------------------------------------------------------|-------------------------------------------------------|
 A|-------------------------------------------------------|-------------------------------------------------------|
 F|-------------------------------------------------------|-------------------------------------------------------|
 C|-------------------------------------------------------|-------------------------------------------------------|
 G|-5---------------4---------------3---------------3--2--|-5---------------4---------------3---------------3--2--|
 D|-3-0-0-3h6p3-0-0-2-0-0-2h5p2-0-0-1-0-0-1h4p1-0-0-1--0--|-3-0-0-3h6p3-0-0-2-0-0-2h5p2-0-0-1-0-0-1h4p1-0-0-1--0--|


     Riff A1 - (Guitar 2)

 D|-------------------------------------------------------|-------------------------------------------------------|
 A|-------------------------------------------------------|-------------------------------------------------------|
 F|-----------------------%-------------------------------|-------------------------------------------------------|
 C|-------------------------------------------------------|-------------------------------------------------------|
 G|-------------------------------------------------------|-5---------------4---------------3---------------3--2--|
 D|-------------------------------------------------------|-3-0-0-3h6p3-0-0-2-0-0-2h5p2-0-0-1-0-0-1h4p1-0-0-1--0--|





     Riff A2 - (Guitars 1 & 2)
			  			        2x
 D|-------------------------------------------------------|
 A|-------------------------------------------------------|
 F|-------------------------------------------------------|
 C|-------------------------------------------------------|
 G|-5---------------4---------------3---------------3--2--|
 D|-3-0-0-3h6p3-0-0-2-0-0-2h5p2-0-0-1-0-0-1h4p1-0-0-1--0--|





     Riff B - (Guitars 1 & 2)
			   			     4x
 D|----------------------------------------------------|
 A|----------------------------------------------------|
 F|----------------------------------------------------|
 C|----------------------------------------------------|
 G|-5--------------4--------------3--------------3--2--|
 D|-3-0-0-3h6p3--0-2-0-0-2h5p2--0-1-0-0-1h4p1--0-1--0--|
 pm . . .        . . . .        . . . .        . 




     Riff C - (Guitar 1)
												      		          2x
 D|-----------------------------------------------------------------|-------------------------------------------------------|
 A|-----------------------------------------------------------------|-------------------------------------------------------|
 F|-----------------------------------------------------------------|-------------------------------------------------------|
 C|-----------------------------------------------------------------|-------------------------------------------------(3ph~)|
 G|-5---------------4---------------3---------------5h8p5h8-3h6p3h6-|-5---------------4---------------3-----------6-5-------|
 D|-3-0-0-3h6p3-0-0-2-0-0-2h5p2-0-0-1-0-0-1h4p1-0-0-----------------|-3-0-0-3h6p3-0-0-2-0-0-2h5p2-0-0-1-0-0-1h4p1-4-3-------|
 pm													         . .


     Riff C - (Guitar 2)
															  2x
 D|-----------------------------------------------------------------|-------------------------------------------------------|
 A|-----------------------------------------------------------------|-------------------------------------------------------|  F|-----------------------------------------------------------------|-------------------------------------------------------|
 C|-------------------------------------------------4h7p4h7-2h5p2h5-|-------------------------------------------------------|
 G|-5---------------4---------------3-------------------------------|-5---------------4---------------3-----------6-5-(5ph~)|
 D|-3-0-0-3h6p3-0-0-2-0-0-2h5p2-0-0-1-0-0-1h4p1-0-0-----------------|-3-0-0-3h6p3-0-0-2-0-0-2h5p2-0-0-1-0-0-1h4p1-4-3-------|
 pm													         . .




     Riff D - (Guitar 1)

 D|---------------------9h12p9h12----------------------------------------------|
 A|-----------9h12p9h12-----------8h11p8h11------------------------------------|
 F|-----------------------------------------7h10p7h10--------------------------|
 C|-7h10p7h10-----------------------------------------7h10p7h10-6h9p6h9-(5ph~)-|
 G|----------------------------------------------------------------------------|
 D|----------------------------------------------------------------------------|


 D|---------------------9h12p9h12----------------------------------------------|
 A|-----------9h12p9h12-----------8h11p8h11------------------------------------|
 F|-----------------------------------------7h10p7h10-------------------(7ph~)-|
 C|-7h10p7h10-----------------------------------------7h10p7h10-6h9p6h9--------|
 G|----------------------------------------------------------------------------|
 D|----------------------------------------------------------------------------|


     Riff D - (Guitar 2)

 D|------------------------------------------------------------------|
 A|-----------------7h10p7h10----------------------------------------|
 F|---------6h9p6h9-----------5h8p5h8--------------------------------|
 C|-----------------------------------5h8p5h8------------------------|
 G|-5h8p5h8-----------------------------------5h8p5h8-4h7p4h7-(3ph~)-|
 D|------------------------------------------------------------------|


 D|------------------------------------------------------------------|
 A|-----------------7h10p7h10----------------------------------------|
 F|---------6h9p6h9-----------5h8p5h8--------------------------------|
 C|-----------------------------------5h8p5h8-----------------(5ph~)-|
 G|-5h8p5h8-----------------------------------5h8p5h8-4h7p4h7--------|
 D|------------------------------------------------------------------|





     Riff E - (Guitar 2)

 D|------------------------------------------------|------------------------------------------------|
 A|------------------------------------------------|------------------------------------------------|
 F|------------------------------------------------|------------------------------------------------|
 C|------------------------------------------------|------------------------------------------------|
 G|-2--3--2--3--2--3--2--3--2--3--2--3--4--3--6--3-|-2--3--2--3--2--3--2--3--2--3--2--3--4--3--6--3-|
 D|-0--1--0--1--0--1--0--1--0--1--0--1--2--1--4--1-|-0--1--0--1--0--1--0--1--0--1--0--1--2--1--4--1-|
 pm .  .  .  .  .  .  .  .  .  .  .  .  .  .  .  .   .  .  .  .  .  .  .  .  .  .  .  .  .  .  .  .


     Riff E - (Guitar 1)

 D|------------------------------------------------|------------------------------------------------|
 A|------------------------------------------------|------------------------------------------------|
 F|--------------------%---------------------------|------------------------------------------------|
 C|------------------------------------------------|------------------------------------------------|
 G|------------------------------------------------|-2--3--2--3--2--3--2--3--2--3--2--3--4--3--6--3-|
 D|------------------------------------------------|-0--1--0--1--0--1--0--1--0--1--0--1--2--1--4--1-|
 pm   						     .  .  .  .  .  .  .  .  .  .  .  .  .  .  .  .





     Riff E2 - (Guitars 1 & 2) - Half Time Feel
						 4x
 D|------------------------------------------------|
 A|------------------------------------------------|
 F|------------------------------------------------|
 C|------------------------------------------------|
 G|-2--3--2--3--2--3--2--3--2--3--2--3--4--3--6--3-|
 D|-0--1--0--1--0--1--0--1--0--1--0--1--2--1--4--1-|
 pm .  .  .  .  .  .  .  .  .  .  .  .  .  .  .  .  




     Riff E3 - (Guitars 1 & 2) - Little Bit Faster
						 4x
 D|------------------------------------------------|
 A|------------------------------------------------|
 F|------------------------------------------------|
 C|------------------------------------------------|
 G|-2--3--2--3--2--3--2--3--2--3--2--3--4--3--6--3-|
 D|-0--1--0--1--0--1--0--1--0--1--0--1--2--1--4--1-|
 pm .  .  .  .  .  .  .  .  .  .  .  .  .  .  .  .





Comments


Popular Unsigned tabs & chords
Byk9- No Time Bass Tabs
Fuzzy Bunny - Level Bass Tabs
Lsd Lucy - Under A Drain Pipe Bass Tabs
Sound Clinic - New Song Bass Tabs
Useless Information - Scotch Bass Tabs
Afterthought - Lost Without Us Tabs
Anti All-Don You Wish Tabs
Casey And Cheri - Up All Night Tabs
Haze- Hell Tabs
Kasie - Its Brendan Tabs


Song lyrics



↑ Back to top | Tablatures and chords are parodies/interpretations of the original songs. You may use it for private study, scholarship, research or language learning purposes only
© 2014 AZChords.com Contact us | Privacy policy | DMCA | Add/correct tabs | Request tabs | Top 50 tabs