» » »

Kill The Wise - Falling Straight Tabs (ver.1)

Artists:  A B C D E F G H I J K L M N O P Q R S T U V W X Y Z # 

Kill The Wise - Falling Straight Tabs (ver.1)

Unsigned
Rating:
0/5 (0 votes)

Hard to play? Try these video lessons and learn fast.
                Kill The Wise
"Falling straight" 
Screw The Innocent
@Copyright 2003

Tuning: Drop C (cgcfad)
Heavy Distortion

d:---------------------------------------------------------
a:---------------------------------------------------------
f:---------------------------------------------------------
c:-5--2--5--2--5--2---6-6-6-6-6-6-7-7------------
g:-5--2--5--2--5--2---6-6-6-6-6-6-7-7------------
c:-5--2--5--2--5--2---6-6-6-6-6-6-7-7------------

d:---------------------------------------------------------
a:---------------------------------------------------------
f:---------------------------------------------------------
c:-5--2--5--2--5--2---8-8-8-8-8-8-9-9------------
g:-5--2--5--2--5--2---8-8-8-8-8-8-9-9------------
c:-5--2--5--2--5--2---8-8-8-8-8-8-9-9------------

d:---------------------------------------------------------
a:---------------------------------------------------------
f:---------------------------------------------------------
c:-5--2--5--2--5--2---12-12-12-12-12-12-13-13-----
g:-5--2--5--2--5--2---12-12-12-12-12-12-13-13-----
c:-5--2--5--2--5--2---12-12-12-12-12-12-13-13-----

d:---------------------------------------------------------
a:---------------------------------------------------------
f:---------------------------------------------------------
c:-5--2--5--2--5--2----11-12-13--11-12-13------------
g:-5--2--5--2--5--2----11-12-13--11-12-13------------
c:-5--2--5--2--5--2----11-12-13--11-12-13------------

Do this many many times and that is the whole song
but there is a drum/bass solo around the 7th time 
and you just stop and when its done you come in 
louder than ever...

Okay this song is one of my favorite...well I like all of my songs
but this one i would put in the top five...well i know you will like
it but if you dont you can F.O.D. J/K DONT TRY STEALING 
THIS!!!  Peace out James Thurman (lead singer,guitarist) for
Kill The Wise..be looking for us in a few years!!!
            
Hard to play? Try these video lessons and learn fast. | Correct




comments powered by Disqus
↑ Back to top | Tablatures and chords are parodies/interpretations of the original songs. You may use it for private study, scholarship, research or language learning purposes only