» » »

Unsigned, Kill The Wise - Another Smile Falls Tabs (ver.1)

Artists:  A B C D E F G H I J K L M N O P Q R S T U V W X Y Z # 

Kill The Wise - Another Smile Falls Tabs (ver.1)

Unsigned Tabs
Rating:
0/5 (0 votes)
Hard to play? Try these video lessons and learn fast.
                Kill The Wise 
"Another Smile Falls"
Screw the innocent
@Copyright 2003


Intro

light destrotion
e:---------------------------------------------
b:---------------------------------------------
g:---------------------------------------------
d:---2--2--2--2--2--2--2--2--2--2--2--2----    X2
a:--2--2--2--2--2--2--2--2--2--2--2--2----- 
E:-0--0--3--3--1--1--0--0--3--3--1--1------

now play that again with heavy destortion

Main Riff 1

e:--------------------------------------------------
b:--------------------------------------------------
g:----0----------0----------0----------0----------- 
d:---2---2--2--2---2--2--2----2--2--2---2--2----  X2
a:--2---2--2--2---2--2--2----2--2--2---2--2-----
E:-0---3--1--0---3--1--0----3--1--0---3--1------

Main Riff 2

e:----3---3---3---3---3---3---3---3----------------
b:--3---3---3---3---3---3---3---3------------------
g:-0---0---2---2---3---3---5---5-------------------    X4
d:----------------------------------------------------
a:----------------------------------------------------
E:----------------------------------------------------


Outro 

e:-3-3---3-3---3-3---3-3---------------------------
b:-3-3---3-3---3-3---3-3---------------------------
g:-0-0---2-2---3-3---5-5---------------------------   X2
d:----------------------------------------------------
a:----------------------------------------------------
E:----------------------------------------------------

At the end of the second time let ring

Intro 
Main RIff 1
Main Riff 2
Main Riff 1
Intro 
Outro


And yet another Smaile Falls when I not in a good mood!!! So enjoy or F.O.D.!!! j/k..this song is off the new to come...Screw the innocent...So enjoy and don't try stealing it I already copyrighted it k.  Peace out James Thurman
            

comments powered by Disqus
↑ Back to top | Unsigned Tabs for Kill The Wise - Another Smile Falls. Lyrics for acoustic guitar and electric guitar. Tablatures and chords are parodies/interpretations of the original songs. You may use it for private study, scholarship, research or language learning purposes only