» » »

Kevin - O Canada Bass tabs (ver.1)

Artists:  A B C D E F G H I J K L M N O P Q R S T U V W X Y Z # 

Kevin - O Canada Bass tabs (ver.1)

Unsigned
Rating:
0/5 (0 votes)

Hard to play? Try these video lessons and learn fast.
                O Canada

riff 1
g-----------------------------------------------------------
d------------------------------0----------------------------
a-0----3---3----------0--1--3-------------------------------
e------------1-----3--------------3-------------------------
riff 2
g-----------------------------------------------------------
d------------------0--2--2--0--0----------------------------
a-0----2---2-3--------------------3-------------------------
e-----------------------------------------------------------
riff 3
g-----------------------------------------------------------
d----------------------------0------------------------------
a---01---0----0-13---1-0--1-3---3--1--0---------------------
e-3--------3-----------------------------3------------------
riff 4
g-----------------------------------------------------------
d-----------------------------------------------------------
a---01---0----0-13---1-0--0-----3--3-2-0-2-3----------------
e-3--------3-----------------3------------------------------
riff 5
g-----------------------------------------------------------
d--------------------------0---0----------------------------
a-0----3---3----------1-------------------------------------
e------------1-------------------3--------------------------
riff 6
g-----------------------------------------------------------
d------------0----------------------------------------------
a-3----4---4----1--0---------------0------------------------
e---------------------3--1----3-----------------------------
riff 7
g-----------------------------------------------------------
d------3---3-0----------0----2----3-------------------------
a-3------------1--0-----------------------------------------
e--------------------3--------------------------------------
            
Hard to play? Try these video lessons and learn fast. | Correct




comments powered by Disqus
↑ Back to top | Tablatures and chords are parodies/interpretations of the original songs. You may use it for private study, scholarship, research or language learning purposes only