» » »

Unsigned, Karosene - Disintegrate Tabs (ver.1)

Artists:  A B C D E F G H I J K L M N O P Q R S T U V W X Y Z # 

Karosene - Disintegrate Tabs (ver.1)

Unsigned Tabs
 Rating:
4/5 (4 votes)
Karosene - Disintegrate lessons Tabs too difficult? Try these video lessons and learn fast
1
                Karosene-Disintegrate

guitar 1 intro

E-------------------------------------------------      ---------
B-------------------------------------------------      ---------
G-------------------------------------------------X 2   ---------
D-3--4--5-----3--4--5-6-5---3--4--5---3--4--5-6-7-end   -3--4--5-
A-2--3--4-----2--3--4-5-4---2--3--4---2--3--4-5-6-with  -2--3--4-
E-1--2--3-----1--2--3-4-3---1--2--3---1--2--3-4-5-      -1--2--3-

guitar 2 intro

E---------------------------
B---------------------------
G---------------------------X 4
D---------------------------
A---------------------------
E-55-66-77---55-66-77-98989-

guitar 1 verse 1

E--------------------------------------------------------------------------------
B--------------------------------------------------------------------------------
G--------------------------------------------------------------------------------
D--------------------------------------------------------------------------------
A---------9999999---------9999999----------------9999999---------9999999---------
E-7777777---------9999999---------10101010101010---------9999999---------0000000-

This is very difficult, 
this could never be my fault,
this is all because of you,
and all the hell you put me through,
I am gonna search for more,
maybe i will find the cure,
one of these days you'll miss me,
sooner or later you will see.

Guitar 2 chorus

E---------------------------------
B---------------------------------
G---------------------------------X 2
D-9--990---9--990---9--990---9898-
A-8--880---8--880---8--880---8787-
E-7--770---7--770---7--770---7676-

You can run but you cant hide,
soon enough you'll apologize,
for everything you put me through,
I dont have to live for you.

guitar 1 verse 2

E--------------------------------------------------------------------------------
B--------------------------------------------------------------------------------
G--------------------------------------------------------------------------------
D--------------------------------------------------------------------------------
A---------9999999---------9999999----------------9999999---------9999999---------
E-7777777---------9999999---------10101010101010---------9999999---------0000000-

Do you even care I dought it,
look into my eyes I shouted,
breathing in and breathing out,
this will be our final bout,
theres nothing you can say to me,
to make me feel differently,
no, I dont want anymore,
yes, positively I am sure.

Guitar 2 chorus

E---------------------------------
B---------------------------------
G---------------------------------X 2
D-9--990---9--990---9--990---9898-
A-8--880---8--880---8--880---8787-
E-7--770---7--770---7--770---7676-

You can run but you cant hide,
soon enough you'll apologize,
for everything you put me through,
I dont have to live for you.

guitar 1 verse 3

E------------------------------------------------------------------------------------
B------------------------------------------------------------------------------------
G------------------------------------------------------------------------------------
D------------------------------------------------------------------------------------
A---------9999999---------9999999----------------9999999---------9999999---------9999
E-7777777---------9999999---------10101010101010---------9999999---------7777777-----

E-----------------------------------------------------------
B-----------------------------------------------------------
G-----------------------------------------------------------
D-----------------------------------------------------------
A999---------9999999----------------9999999---------9999999-
E----9999999---------10101010101010---------9999999---------

Your just wasting my time,
your never gonna be mine,
I dont wanna be your friend,
I never wanna see you again,
all the fun times we had together,
I thought that this would last forever,
sick of this and I thought you knew,
I'ma have to say good day to you.

Guitar 2 chorus

E---------------------------------     --------------------------------------
B---------------------------------     --------------------------------------
G---------------------------------X 4  --------------------------------------
D-9--990---9--990---9--990---9898-end  --------------------------------------
A-8--880---8--880---8--880---8787-with --------------------------------------
E-7--770---7--770---7--770---7676-     -888888877777778888888999999989898989-

You can run but you cant hide,
soon enough you'll apologize,
for everything you put me through,
I dont have to live for you,
You can run but you cant hide,
soon enough you'll apologize,
for everything you put me through,
I dont have to live for you,
I dont have to live for you,
I dont have to live for you
            
Submit corrections

comments powered by Disqus
↑ Back to top | Unsigned Tabs for Karosene - Disintegrate. Lyrics for acoustic guitar and electric guitar. 1 Tablatures and chords are parodies/interpretations of the original songs. You may use it for private study, scholarship, research or language learning purposes only