» » »

Unsigned, Kamarach - Odium Ore Tabs (ver.1)

Artists:  A B C D E F G H I J K L M N O P Q R S T U V W X Y Z # 

Kamarach - Odium Ore Tabs (ver.1)

Unsigned Tabs
Rating:
0/5 (0 votes)
Kamarach - Odium Ore lessons Tabs too difficult? Try these video lessons and learn fast
                This is the tab done for our very own song Odium Ore one day you will know us KAMARACH!!

 Drop d tuning 
 T = tapping 
 p = palm muting
 b = bend 
 h = hammer 
 ~ = hold note



VERSE

e -------------------------------------------------
b ----------------------------------------------7--
g -------------------------------------------567---
d -------------5-------------5-------------5-------
a -----5----6--------5----6--------5----6----------
D -0-00-00-0-00--0-00-00-0-00--0-00-00-0-00--------  (x2)
   p pp pp p pp  p pp pp p pp  p pp pp p pp

CHORUS

e -------------------------------------------
b ----------------------------------------7--
g -------------------------------------567---
d -00050006005-00050006005-00050006005-------
a -00050006005-00050006005-00050006005-------
D -00050006005-00050006005-00050006005-------        (x2)

VERSE

CHORUS

SOLO

e -76--76-87--87----789-12-12-12-17-17-17-18-18-b18r--
b ---76-----87---789----------------------------------
g ----------------------------------------------------
d ----------------------------------------------------
a ----------------------------------------------------
D ----------------------------------------------------

   T      T      T      T      T      T      T      T
e -12p7p9-12p7p9-12p7p9-12p7p9-12p7p9-12p7p9-12p7p9-12p7p9--
b ----------------------------------------------------------
g ----------------------------------------------------------
d ----------------------------------------------------------
a ----------------------------------------------------------
D ----------------------------------------------------------

   T      T      T      T      T      T      T      T
e -13p7p9-13p7p9-13p7p9-13p7p9-13p7p9-13p7p9-13p7p9-13p7p9--
b ----------------------------------------------------------
g ----------------------------------------------------------
d ----------------------------------------------------------
a ----------------------------------------------------------
D ----------------------------------------------------------

   T      T      T      T      T      T      T      T
e -14p7p9-14p7p9-14p7p9-14p7p9-14p7p9-14p7p9-14p7p9-14p7p9--
b ----------------------------------------------------------
g ----------------------------------------------------------
d ----------------------------------------------------------
a ----------------------------------------------------------
D ----------------------------------------------------------

   T      T      T      T      T      T      T      T
e -15p7p9-15p7p9-15p7p9-15p7p9-15p7p8-15p6p7-15p5p6-15p4p5--
b ----------------------------------------------------------
g ----------------------------------------------------------
d ----------------------------------------------------------
a ----------------------------------------------------------
D ----------------------------------------------------------


   T      T      
e -15p3p4-15p2p3-b3h4r-------
b ---------------------------
g ---------------------------
d ---------------------0000--
a ---------------------0000--
D ---------------------0000--
                       pppp
            
Submit corrections

comments powered by Disqus
↑ Back to top | Unsigned Tabs for Kamarach - Odium Ore. Lyrics for acoustic guitar and electric guitar. Tablatures and chords are parodies/interpretations of the original songs. You may use it for private study, scholarship, research or language learning purposes only