» » »

Juvenile Plague - Bass Jam Bass tabs (ver.1)

Artists:  A B C D E F G H I J K L M N O P Q R S T U V W X Y Z # 

Juvenile Plague - Bass Jam Bass tabs (ver.1)

Unsigned
Rating:
0/5 (0 votes)

Hard to play? Try these video lessons and learn fast.
                This is one of my favourite band songs cos i made a bass solo for it ... hope you
like it

INTRO
G [----------------]
D [----------------]
A [--------3-0-2---]
D [0-0-3-0---------]

VERSE 
G [----------------------------------------------------------------
D [----------------------------------------------------------------
A [--------3-0-2-----------3-0-2-----------8-5-7-----------8-5-7---
D [0-0-3-0---------0-0-3-0---------5-5-8-5---------5-5-8-5---------

VERSE CONT.
G [--------------------------------------------------------------------------]
D [--------------------------------------------------------------------------]
A [--------3-0-2-----------3-0-2---------------------------------------------]
D [0-0-3-0---------0-0-3-0---------7-7-7-7-7-7-7-7-10-10-10-10-10-10-10-10-0-]

BASS SOLO
G [-----------------------------------------------------------------
D [-----------------------------------------------------------------
A [--------2-0-3-5---------3-0-2-----------7-5-8-10---------8-5-7---
D [0-0-3-0---------0-0-3-0-------3-5-5-8-5----------5-5-8-5-------8-

SOLO CONT.
G [----------------------------------------------------------------------------
D [----------------------------------------------------------------------------
A [----------------------------------------------------------------------------
D [0-0-5-4-3-0-3^---0-0-5-4-3-0-3^---7-7-7-7-7-7-7-7-10-10-10-10-10-10-10-12-0-

ORDER
INTRO x 8
VERSE x 2
BASS SOLO x 1
VERSE x 6
END
            
Hard to play? Try these video lessons and learn fast. | Correct




comments powered by Disqus
↑ Back to top | Tablatures and chords are parodies/interpretations of the original songs. You may use it for private study, scholarship, research or language learning purposes only