>
 >
Just A Number - Everyday

Just A Number - Everyday Guitar Tabs

Unsigned - Just A Number - Everyday chords, tabs, tablatures, lyrics

Guitar lessons | Add/correct | Request | Top 50 tabs Artists:  A B C D E F G H I J K L M N O P Q R S T U V W X Y Z 0-9

Just A Number - Everyday Guitar Tabs – Unsigned

CD, Sheet music, Poster

Do you like Just A Number - Everyday? Share with your friends now
Tabs
intro:

---3-3----2-2---3-3--2--0-0-----2-2---3-3--2-----
---3--3---3--3--3--3-3--1--1----3--3--3--3-3-----
---0---0--2---2-2----2--2---2---2---2-2----2-----
---0----0-0----------0--2----2--0----------0-----  x2
---2--------------------0------------------------
---3---------------------------------------------
verse part1:

---3----4----3----1----2----1----3----4----3----5----6----5-------------
----4----4----4----2----2----2----4----4----4----6----6----6------------x3
------3----3----3----1----1----1----3----3----3----5----5----5----------
verse part2: 
-----3---4---3---1---2---1---3---4---3---5---6---5----------
----4---4---4---2---2---2---4---4---4---6---6---6-----------
---3---3---3---1---1---1---3---3---3---5---5---5------------x1
------------------------------------------------------------
------------------------------------------------------------
------------------------------------------------------------
chorus:

---5-x-5-5--3-x-3-3--1-x-1-1--3-x-3-3-3-3-3---------
---5-x-6-6--3-x-4-4--1-x-2-2--3-x-4-4-4-4-4---------
---6-x-7-7--4-x-5-5--2-x-3-3--4-x-5-5-5-5-5--------- x4
---7-x-7-7--5-x-5-5--3-x-3-3--5-x-5-5-5-5-5---------
---7-x-5-5--5-x-3-3--3-x-1-1--5-x-3-3-3-3-3---------
---5-x-5-5--3-x-3-3--1-x-1-1--3-x-3-3-3-3-3---------
2nd verse part1:
-----3---4---3---1---2---1---3---4---3---5---6---5----------
----4---4---4---2---2---2---4---4---4---6---6---6-----------
---3---3---3---1---1---1---3---3---3---5---5---5------------ x3
------------------------------------------------------------
------------------------------------------------------------
------------------------------------------------------------
2nd verse part2:
-----3-----4----3----1-----2-----3-----4-----3-----5-----6------5------
-------4-----4----4----2-----2-----4-----3-----4-----6-----6------6----
---3-----3-----3----1----1-----3-----3-----3-----5-----5-----5--------- x1
outro part1:

---3-3-3-3-3--2-2--3-3--2---0-0-0-0-0---2-2--3-3--2-------
---3-3-3-3-3--3-3--3-3--3---1-1-1-1-1---3-3--3-3--3-------
---0-0-0-0-0--2-2--2-2--2---2-2-2-2-2---2-2--2-2--2------- x2
---0-0-0-0-0--0-0--0-0--0---2-2-2-2-2---0-0--0-0--0-------
---2-2-2-2-2----------------0-0-0-0-0---------------------
---3-3-3-3-3----------------------------------------------
outro part2:
---3-3----2-2---3-3--2--0-0-----2-2---3-3--2-----
---3--3---3--3--3--3-3--1--1----3--3--3--3-3-----
---0---0--2---2-2----2--2---2---2---2-2----2-----
---0----0-0----------0--2----2--0----------0-----  x2
---2--------------------0------------------------
---3---------------------------------------------


Intro:
Verse:
Chorus:
Verse:
Chorus:
Outro:





Comments


Popular Unsigned tabs & chords
1-11 Bass Tabs
Hijacked Mojo - 4 Days After Bass Tabs
My Last Wish - Online Girls Bass Tabs
The Accidentals - Herman The Worm Bass Tabs
Black Cast - No More Tabs
Black Dawn-Youe Alone Tabs
Dario Utichi - Jerk Tabs
Dark Arcanum- Morale Tabs
Fernands Band - Love Tabs
Haze- Hell Tabs


Song lyrics



↑ Back to top | Tablatures and chords are parodies/interpretations of the original songs. You may use it for private study, scholarship, research or language learning purposes only
© 2014 AZChords.com Contact us | Privacy policy | DMCA | Add/correct tabs | Request tabs | Top 50 tabs