>
 >
Just A Number - Creative

Just A Number - Creative Guitar Tabs

Unsigned - Just A Number - Creative chords, tabs, tablatures, lyrics

Guitar lessons | Add/correct | Request | Top 50 tabs Artists:  A B C D E F G H I J K L M N O P Q R S T U V W X Y Z 0-9

Just A Number - Creative Guitar Tabs – Unsigned

CD, Sheet music, Poster

Do you like Just A Number - Creative? Share with your friends now
Tabs
Intro:

-----------------------------------3-3-3-3-3--------------------------------
--7-7-7-7-7--7-7-7-7-7--4-4-4-4-4--2-2-2-2-2------------------------------------
--7-7-7-7-7--7-7-7-7-7--5-5-5-5-5--3-3-3-3-3---------------------------------------
--5-5-5-5-5--5-5-5-5-5--3-3-3-3-3--1-1-1-1-1--------------------------------------
--7-7-7-7-7--6-6-6-6-6-------------------------------------------------------

-----------------------------------3-3-3-3-3---------------------------
--7-7-7-7-7--7-7-7-7-7--5-5-5-5-5--2-2-2-2-2------------------------------
--7-7-7-7-7--7-7-7-7-7--5-5-5-5-5--3-3-3-3-3---------------------------------
--5-5-5-5-5--5-5-5-5-5--3-3-3-3-3--1-1-1-1-1-------------------------------
--7-7-7-7-7--6-6-6-6-6------------------------------------------------------

--7-7-7-7-7--7-7-7-7-7--5-5-5-5-5--3-3--2-2--3---------------------------------
--7-7-7-7-7--7-7-7-7-7--5-5-5-5-5--3-3--3-3--3-----------------------------------
--5-5-5-5-5--5-5-5-5-5--3-3-3-3-3--1-1--1-1--1----------------------------------
--7-7-7-7-7--6-6-6-6-6------------------------------------------------------

--7-7-7-7-7--7-7-7-7-7---9-9--5-5--7-7------------------------------------------
--7-7-7-7-7--7-7-7-7-7---9-9--5-5--7-7------------------------------------------
--5-5-5-5-5--5-5-5-5-5---7-7--3-3--5-5----------------------------------------
--7-7-7-7-7--6-6-6-6-6---9-9--5-5--7-7-------------------------------------------
verse:

----------------10----------------8----------------4----------------6----
------9-----------9-----7----------7-----3----------3-----5----------5--- x3
----7---7-----7-------5---5-----5------1---1-----1------3---3-----3------
--9-------9-9-------7-------7-7------3-------3-3------5-------5-5-------
pre-chorus:

---------------------------------------------------------
--6-6-6-6-6-6-6-6--4-4-4-4-x-x-4-4-4-4-------------------
--7-7-7-7-7-7-7-7--5-5-5-5-x-x-5-5-5-5--x2---------------
--7-7-7-7-7-7-7-7--5-5-5-5-x-x-5-5-5-5--------------------
--5-5-5-5-5-5-5-5--3-3-3-3-x-x-3-3-3-3--------------------
---------------------------------------------------------

------------------------------------------------------------
------------------------------------------------------------
--8-8-8-8-8-8-8-8--6-6-6-6-x-x-6-6-6-6---------------------
--9-9-9-9-9-9-9-9--7-7-7-7-x-x-7-7-7-7---x2------------------
--7-7-7-7-7-7-7-7--5-5-5-5-x-x-5-5-5-5---------------------
--8-8-8-8-8-8-8-8--6-6-6-6-x-x-6-6-6-6--------------------
chorus:

-----------------------------------3-3-3-3-3--1-1-1-1-1--------
--7-7-7-7-7--5-5-5-5-5--3-3-3-3-3--5-5-5-5-5--3-3-3-3-3--------
--9-9-9-9-9--7-7-7-7-7--5-5-5-5-5--4-4-4-4-4--2-2-2-2-2--------
--8-8-8-8-8--6-6-6-6-6--4-4-4-4-4--5-5-5-5-5--3-3-3-3-3--------
solo:

------------------------------9b-7/12-14--------------------------------
------7-9/11/9-9b-7~~-9p7---7------------12~~10h12p10-10/7-9p7----------
--7h9---------------------9------------------------------------9-9b-7~~~
outro:

-------------------------------------3-3-3-3-3------------------------
---7-7-7-7-7--7-7-7-7-7---4-4-4-4-4--2-2-2-2-2------------------------
---7-7-7-7-7--7-7-7-7-7---5-5-5-5-5--3-3-3-3-3------------------------
---5-5-5-5-5--5-5-5-5-5---3-3-3-3-3--1-1-1-1-1-------------
---7-7-7-7-7--6-6-6-6-6-----------------------------------------------

-------------------------------------3-3-3-3-3-----------------------
---7-7-7-7-7--7-7-7-7-7---5-5-5-5-5--2-2-2-2-2------------------------
---7-7-7-7-7--7-7-7-7-7---5-5-5-5-5--3-3-3-3-3-----------------------
---5-5-5-5-5--5-5-5-5-5---3-3-3-3-3--1-1-1-1-1-----------------------
---7-7-7-7-7--6-6-6-6-6-----------------------------------------------

---7-7-7-7-7--7-7-7-7-7---5-5-5-5-5--3-3--2-2--3--------------------
---7-7-7-7-7--7-7-7-7-7---5-5-5-5-5--3-3--3-3--3----------------------
---5-5-5-5-5--5-5-5-5-5---3-3-3-3-3--1-1--1-1--1------------------
---7-7-7-7-7--6-6-6-6-6-------------------------------------------

---7-7-7-7-7--7-7-7-7-7---9-9--5-5--7-7-----------------------------
---7-7-7-7-7--7-7-7-7-7---9-9--5-5--7-7--------------------
---5-5-5-5-5--5-5-5-5-5---7-7--3-3--5-5----------------------------
---7-7-7-7-7--6-6-6-6-6---9-9--5-5--7-7----------------------------

------------------------------------3-3-3-3-3--------------------
---7-7-7-7-7--7-7-7-7-7--4-4-4-4-4--2-2-2-2-2--------------------
---7-7-7-7-7--7-7-7-7-7--5-5-5-5-5--3-3-3-3-3-------------------
---5-5-5-5-5--5-5-5-5-5--3-3-3-3-3--1-1-1-1-1--------------------
---7-7-7-7-7--6-6-6-6-6------------------------------------------

-------------------------------------3-3-3-3-3-------------------
---7-7-7-7-7--7-7-7-7-7---5-5-5-5-5--2-2-2-2-2------------------
---7-7-7-7-7--7-7-7-7-7---5-5-5-5-5--3-3-3-3-3------------------
---5-5-5-5-5--5-5-5-5-5---3-3-3-3-3--1-1-1-1-1-----------------
---7-7-7-7-7--6-6-6-6-6---------------------------------------

------------------------------------------------------------
------------------------------------------------------------
---7-7-7-7-7--7-7-7-7-7---5-5-5-5-5--3-3--2-2--3-----------
---7-7-7-7-7--7-7-7-7-7---5-5-5-5-5--3-3--3-3--3---------
---5-5-5-5-5--5-5-5-5-5---3-3-3-3-3--1-1--1-1--1--------
---7-7-7-7-7--6-6-6-6-6-----------------------------------
Intro:
Verse:
Pre-chorus:
Chorus:
Verse:
Pre-chorus:
Chorus:
Solo:
Chorus:
Outro:





Comments


Popular Unsigned tabs & chords
Fake I.D - Wasting Time On Me Bass Tabs
Globber-Chicken Bass Tabs
Noize - Immature Bass Tabs
Original Bass Tabs
Chloie Tabs
Door Knob Tabs
Easily Amused - Why Tabs
Egoshed-The Dark Inside Us Tabs
Every Day Heroes - Song #1 Tabs
Idiot Box - Midnightmare Tabs


Song lyrics



↑ Back to top | Tablatures and chords are parodies/interpretations of the original songs. You may use it for private study, scholarship, research or language learning purposes only
© 2014 AZChords.com Contact us | Privacy policy | DMCA | Add/correct tabs | Request tabs | Top 50 tabs