» » »

Unsigned, Jfd- Riffs Tabs (ver.1)

Artists:  A B C D E F G H I J K L M N O P Q R S T U V W X Y Z # 

Jfd- Riffs Tabs (ver.1)

Unsigned Tabs
 Rating:
4/5 (4 votes)
Jfd- Riffs lessons Tabs too difficult? Try these video lessons and learn fast
                H= hammer on
P= pull off
B = Bend
T= Tremelo

A riff I wrote


--------------------------------------6B------------------------------------------
---7-----5------------------------------------------------------------------------
---------------5----7----5---------------------------------------------------------
-------------------------------8-------------------------------------------------

Another riff I wrote


------------------------4----7----4-------------------------------------------------
--------------4----6--------------------6----4--------------------------------------
---4--H--6----------------------------------------6--P--4---------------------------
-------------------------------------------------------------6----4-----------------


-------------------------------4----6----------------------------------------
--------------------------4--------------6----4T-------------------------------
-4----5--------------4--------------------------------------------------------
-----------7----4------------------------------------------------------------

Put in pauses and bends to make it sound the way you want it to

Another one

----------------------------------------5----4------------------------
-5----4----0----4----5-------------5--------------4----5--------------
------------------------------5---------------------------------------
            
Submit corrections

comments powered by Disqus
↑ Back to top | Unsigned Tabs for Jfd- Riffs. Lyrics for acoustic guitar and electric guitar. Tablatures and chords are parodies/interpretations of the original songs. You may use it for private study, scholarship, research or language learning purposes only