» » »

Unsigned, Jesse Campbell- There Is No Happiness Tabs (ver.1)

Artists:  A B C D E F G H I J K L M N O P Q R S T U V W X Y Z # 

Jesse Campbell- There Is No Happiness Tabs (ver.1)

Unsigned Tabs
 Rating:
4/5 (4 votes)
Jesse Campbell- There Is No Happiness lessons Tabs too difficult? Try these video lessons and learn fast
1
                "There's A Light" By: Jesse Campbell

Riff A
|2--2-2--2-2-2--2-2--2-2-2--2-2--2-2-2--2-2--2-2|
|2--2-2--2-2h3--3-3--3-3p2--2-2--2-2h3--3-3--3-3|
|2--2-2--2-2-2--2-2--2-2-2--2-2--2-2-2--2-2--2-2|
|-----------------------------------------------|
|-----------------------------------------------|
|-----------------------------------------------|

Riff B
|5--5-5--5-5p2--2-2--2-2h3--3-3--3-3p0--0-0--0-0|
|3--3-3--3-3-3--3-3--3-3-3--3-3--3-3-3--3-3--3-3|
|2--2-2--2-2-2--2-2--2-2-2--2-2--2-2-2--2-2--2-2|
|-----------------------------------------------|
|-----------------------------------------------|
|-----------------------------------------------|

RIff C
|--2---2---2---2---3---3---0---0---5---5---0---0|
|-2-2-2-2-3-3-3-3-3-3-3-3-3-3-3-3-3-3-3-3-3-3-3-|
|2---2---2---2---2---2---2---2---2---2---2---2--|
|-----------------------------------------------|
|-----------------------------------------------|
|-----------------------------------------------|

Song Order goes like this:
-Riff A
-Riff B
-Riff B
-Riff A
-Riff A
-Riff C
-Riff C
-Riff C
-Riff B
-Riff B
-Riff A Slowly fade away at ending, holding last notes.
            
Submit corrections

comments powered by Disqus
↑ Back to top | Unsigned Tabs for Jesse Campbell- There Is No Happiness. Lyrics for acoustic guitar and electric guitar. 1 Tablatures and chords are parodies/interpretations of the original songs. You may use it for private study, scholarship, research or language learning purposes only