» » »

Unsigned, Jack In The Green-Christmas Is Cancelled Bass tabs (ver.1)

Artists:  A B C D E F G H I J K L M N O P Q R S T U V W X Y Z # 

Jack In The Green-Christmas Is Cancelled Bass tabs (ver.1)

Unsigned Tabs
Rating:
0/5 (0 votes)
Jack In The Green-Christmas Is Cancelled lessons Tabs too difficult? Try these video lessons and learn fast
                christmas is cancelled/ jack in the green bass

intro
g--------------------------------------------
d--3-----------------------------------------
a----3-4-4-----------------------------------
e--------------------------------------------
verse
g--------------------------------------------
d--3-3-3-3-3-3-3-3---------------------------
a------------------3-3-3-3-5-5-5-5-----------
e--------------------------------------------x4
chorus
g--------------------------------------------
d-0-3-3-3------------------------------------
a---------3-3-2-2----------------------------
e--------------------------------------------x4
verse
chorus 
verse
bass solo
g--------------------------------------------
d-0-0-0-0-0-0-0-0-4-4-4-4-0-0-0-0------------
a---------------------------------1-1-1-1-1-1
e--------------------------------------------
solo cont
g--------------------------------------------
d-0------------3-3-3-3-2-2-2-2-0-------------
a---1--3-3-3-3-------------------------------
e--------------------------------------------x2
verse
outro
g--------------------------------------------
d-0-3-3-3------------------------------------
a--------3-3-2-2-----------------------------
e--------------------------------------------x6 slowing down after 4
            
Submit corrections

comments powered by Disqus
↑ Back to top | Unsigned Bass for Jack In The Green-Christmas Is Cancelled. Lyrics for acoustic guitar and electric guitar. Tablatures and chords are parodies/interpretations of the original songs. You may use it for private study, scholarship, research or language learning purposes only