» » »

Unsigned, Issacs And Eytans Band-Not Named Tabs (ver.1)

Artists:  A B C D E F G H I J K L M N O P Q R S T U V W X Y Z # 

Issacs And Eytans Band-Not Named Tabs (ver.1)

Unsigned Tabs
 Rating:
4/5 (4 votes)
Issacs And Eytans Band-Not Named lessons Tabs too difficult? Try these video lessons and learn fast
                Riff 1
Guitar 1 light distortion
|----------------|----------------------------|----------------------------------|---------------------------|
|----------------|----------------------------|----------------------------------|---------------------------|
|----------------|----------------------------|----------------------------------|---------------------------|
|----------------|----------------------------|----------------------------------|---------------------------|
|-77777777-10-|-10-10101010101010-12-|-12-12121212121212---|---------------------------|
|----------------|----------------------------|------------------------------12-|-1212121212121212--|
| Guitar 2
|----------------|----------------------------|----------------------------------|---------------------------|
|----------------|----------------------------|----------------------------------|---------------------------|
|----------------|----------------------------|----------------------------------|---------------------------|
|----------------|----------------------------|----------------------------------|---------------------------|
|----------------|----------------------------|----------------------------------|---------------------------|
|----------------|----------------------------|----------------------------------|---------------------------|
Riff 1b							first ending------------------------------|
|-----------------|-------------------------------|------------------------------|--------------------------||
|-----------------|-------------------------------|------------------------------|--------------------------||
|-----------------|-------------------------------|------------------------------|--------------------------||
|-----------------|-------------------------------|------------------------------|--------------------------||
|77777777-10-|-10-10101010101010-12-|-12-12121212121212----|--------------------------||
|-----------------|-------------------------------|--------------------------12-|-1212121212121212-||
| Guitar 2										           |
|-------------------------|--------------------------|--------------------------|---------------------------||
|-------------------------|--------------------------|--------------------------|---------------------------||
|-------------------------|--------------------------|--------------------------|---------------------------||
|-------------------------|--------------------------|--------------------------|---------------------------||
|-------------------------|--------------------------|--------------------------|---------------------------||
|2-2-2-2-2-2-2-2-3-0-|-2-2-2-2-2-2-2-2-5-0-|-2-2-2-2-2-2-2-2-3-0-|-0000-000050003000-||
P.M.^ ^ ^ ^ ^ ^ ^ ^ ^ ^ ^ ^ ^ ^ ^ ^ ^ ^ ^ ^ ^ ^ ^ ^ ^ ^ ^ ^ ^ ^ ^ ^ ^ ^ ^ ^ ^ ^ ^ ^ ^ ^ ^ ^ ^ ^  ||  
            First ending^--------------------------- ||
Riff 1b second ending 
Guitar 1
|-------------------------||
|-------------------------||
|-------------------------||
|-------------------------||
|12----------------------||
|12----------------------||
|
|-------------------------||
|-------------------------||
|-------------------------||
|-------------------------||
|-0----------------------||
|-0----------------------||
Riff 2
Guitar 1&2
|-------------------------|--------------------------|--------------------------|---------------------------|
|-------------------------|--------------------------|--------------------------|---------------------------|
|-------------------------|--------------------------|--------------------------|---------------------------|
|2-2-2-2-2-2-2-2-3-0-|-2-2-2-2-2-2-2-2-5-0-|-2-2-2-2-2-2-2-2-3-0-|-0000-000050003000-|
|2-2-2-2-2-2-2-2-3-0-|-2-2-2-2-2-2-2-2-5-0-|-2-2-2-2-2-2-2-2-3-0-|-0000-000050003000-|
|2-2-2-2-2-2-2-2-3-0-|-2-2-2-2-2-2-2-2-5-0-|-2-2-2-2-2-2-2-2-3-0-|-0000-000050003000-|

Riff 3 Guitars 1 & 2
|-------------------------------|-------------------------------------------------|
|-------------------------------|-------------------------------------------------|
|-------------------------------|-------------------------------------------------|
|-9-9-9-9-9-9-9-9-9-9-9-9-|-12-12-12-12-12-12-12-12-12-12-12-12-|  
|-7-7-7-7-7-7-7-7-7-7-7-7-|-10-10-10-10-10-10-10-10-10-10-10-10-|
|-------------------------------|-------------------------------------------------|
P.M.^ ^ ^ ^ ^ ^ ^ ^ ^ ^ ^ ^ ^ ^ ^ ^ ^ ^ ^ ^ ^ ^ ^ ^ ^ ^ ^ ^ ^ ^ ^
Riff 3 continued
|-------------------------------------------------|-------------------------------|
|-------------------------------------------------|-------------------------------|
|-------------------------------------------------|-------------------------------|
|-14-14-14-14-14-14-14-14-14-14-14-14-|-0h2-222-0h2-222-0h2-2-|
|-12-12-12-12-12-12-12-12-12-12-12-12-|-0h2-222-0h2-222-0h2-2-|
|-12-12-12-12-12-12-12-12-12-12-12-12-|-0h2-222-0h2-222-0h2-2-|
P.M.^ ^ ^ ^ ^ ^ ^ ^ ^ ^ ^ ^ ^ ^ ^ ^ ^ ^ ^ ^

Riff 4 
Guitars 1 & 2
|-----------------|-------------------|--------------------|-----------------------|
|-----------------|-------------------|--------------------|-----------------------|
|-----------------|-------------------|----5--5-5-5-5-5-|-5-4-xxxx---4-00--|
|-2--2-2-2-2-2-|-2-5--5-5-5-5-5-|-5-5--5-5-5-5-5-|-5-4-xxxx---4-00--|
|-2--2-2-2-2-2-|-2-5--5-5-5-5-5-|-5-3--3-3-3-3-3-|-3-2-xxxx---2-00--|
|-2--2-2-2-2-2-|-2-5--5-5-5-5-5-|-5-----------------|------xxxx------00--|

Riff 5 (Solo)
Guitar 1 (guitar 2 plays solo fill [riff 2])
|\12-12-12-12tr15-15-17-17-17-12tr15-17-19-19-19-12-12tr15-15\19-20-|
|----------------------------------------------------------------------------------------|
|----------------------------------------------------------------------------------------|
|----------------------------------------------------------------------------------------|
|----------------------------------------------------------------------------------------|
|----------------------------------------------------------------------------------------|



|-T12-5-8-T12-5-8-T12-5-8-T12-5-8-T12-5-8-T12-5-8-T12-5-8-T12-5-8-|
|----------------------------------------------------------------------------------------|
|----------------------------------------------------------------------------------------|
|----------------------------------------------------------------------------------------|
|----------------------------------------------------------------------------------------|
|----------------------------------------------------------------------------------------|

|-T13-2-8-T13-2-8-T13-2-8-T13-2-8-T13-2-8-T13-2-8-T13-2-8-T13-2-8-|
|----------------------------------------------------------------------------------------|
|----------------------------------------------------------------------------------------|
|----------------------------------------------------------------------------------------|
|----------------------------------------------------------------------------------------|
|----------------------------------------------------------------------------------------|
            
Submit corrections

comments powered by Disqus
↑ Back to top | Unsigned Tabs for Issacs And Eytans Band-Not Named. Lyrics for acoustic guitar and electric guitar. Tablatures and chords are parodies/interpretations of the original songs. You may use it for private study, scholarship, research or language learning purposes only