» » »

Invalid - #1 Tabs (ver.1)

Artists:  A B C D E F G H I J K L M N O P Q R S T U V W X Y Z # 

Invalid - #1 Tabs (ver.1)

Unsigned
Rating:
0/5 (0 votes)

Hard to play? Try these video lessons and learn fast.
                written by Invalid (the band i'm in)


Intro

e|---------------------------------------------------------------------------| 
B|---------------------------------------------------------------------------| 
G|---------------------------------------------------------------------------| 
D|-0-0-5--0-0-3--0-0-7--0-0-5--0-0-3--0-0-5--0-0-7--0-0-3--------------------| 
A|---------------------------------------------------------------------------| 
E|---------------------------------------------------------------------------| 
 

Verse

e|---------------------------------------------------------------------------| 
B|---------------------------------------------------------------------------| 
G|---------------------------------------------------------------------------| 
D|---------------------------------------------------------------------------|x2
A|---------------------------------------------------------------------------| 
E|-0-0-5--0-0-3--0-0-7--0-0-5--0-0-3--0-0-5--0-0-7--0-0-3--------------------| 

 
e|---------------------------------------------------------------------------| 
B|---------------------------------------------------------------------------| 
G|---------------------------------------------------------------------------| x2
D|---------------------------------------------------------------------------| 
A|---------------------------------------------------------------------------| 
E|-5-5-5--3-3-3--7-7-7--5-5-5--3-3-3--5-5-5--7-7-7--3-3-3--------------------| 
 

Chorus

e|---------------------------------------------------------------------------| 
B|---------------------------------------------------------------------------| 
G|---------------------------------------------------------------------------| 
D|---------------------------------------------------------------------------| x2
A|---------------------------------------------------------------------------| 
E|-0-0-5-5--0-0-3-3--0-0-7-7--0-0-5-5--0-0-3-3--0-0-5-5--0-0-7-7--0-0-3-3----|


Bridge

e|---------------------------------------------------------------------------| 
B|---------------------------------------------------------------------------| 
G|---------------------------------------------------------------------------| 
D|---------------------------------------------------------------------------| x2
A|-7--5--2-----2--5--7--9--5------------7--5--2-----2--5--7--5--9--7---------| 
E|-5--3--0-----0--3--5--7--3------------5--3--0-----0--3--5--3--7--5---------|

Order
Intro
Verse
Chorus
Verse
Chorus
Bridge
            
Hard to play? Try these video lessons and learn fast. | Correct




comments powered by Disqus
↑ Back to top | Tablatures and chords are parodies/interpretations of the original songs. You may use it for private study, scholarship, research or language learning purposes only