» » »

Unsigned, Intoxicated - Something Bass tabs (ver.1)

Artists:  A B C D E F G H I J K L M N O P Q R S T U V W X Y Z # 

Intoxicated - Something Bass tabs (ver.1)

Unsigned Tabs
 Rating:
4/5 (4 votes)
Intoxicated - Something lessons Tabs too difficult? Try these video lessons and learn fast
1
                Intro
E------------------------------------------------------
A------------------------------------------------------
D---3---3---3---0---0---0---1---1---1------------------ x2
G--------------------------------------------1---1---1-

Chorus (no lyrics)
E------------------------------        ------------------------------------
A------------------------------       -------------------------------------
D------------------------------ x3  ---------------------------------------
G---3-3-3-5-5-1-1-1-1----------        --3-3-3-3-3-3-3-3-3-3-3-3-3-3-3-3---

Verse
E------------------------------------------------------
A------------------------------------------------------
D---3---3---3---0---0---0---1---1---1------------------ x4
G--------------------------------------------1---1---1-

Chorus 
E------------------------------        ------------------------------------
A------------------------------        ------------------------------------
D------------------------------ x3     ------------------------------------
G---3-3-3-5-5-1-1-1-1----------        --3-3-3-3-3-3-3-3-3-3-3-3-3-3-3-3---

Verse
E------------------------------------------------------
A------------------------------------------------------
D---3---3---3---0---0---0---1---1---1------------------ x4
G--------------------------------------------1---1---1-

Chorus 
E------------------------------        ------------------------------------
A------------------------------        ------------------------------------
D------------------------------ x3     ------------------------------------
G---3-3-3-5-5-1-1-1-1----------        --3-3-3-3-3-3-3-3-3-3-3-3-3-3-3-3---

Bridge
E--------------------------------------------------------------------
A--------------------------------------------------------------------
D-------------------3-5-7--------------------------3-5-7-------------
G---5-7-8-1-3-5-----------3-5-7-5-7-8-1-3-5----------3-3-3-3-3-3-3-3—

Chorus 
E------------------------------        --------------------------------------------
A------------------------------        --------------------------------------------
D------------------------------ x3     --------------------------------------------
G---3-3-3-5-5-1-1-1-1----------        --3-3-3-3-3-3-3-3-3-3-3-3-3-3-3-3---

Chorus 
E------------------------------        --------------------------------------------
A------------------------------        --------------------------------------------
D------------------------------ x3     --------------------------------------------
G---3-3-3-5-5-1-1-1-1----------        --3-3-3-3-3-3-3-3-3-3-3-3-3-3-3-3---

Verse
E------------------------------------------------------
A------------------------------------------------------
D---3---3---3---0---0---0---1---1---1------------------ x2
G--------------------------------------------1---1---1-
            
Submit corrections

comments powered by Disqus
↑ Back to top | Unsigned Bass for Intoxicated - Something. Lyrics for acoustic guitar and electric guitar. 1 Tablatures and chords are parodies/interpretations of the original songs. You may use it for private study, scholarship, research or language learning purposes only