» » »

Unsigned, Into The Woods With Juliet-Vanessas Son Tabs (ver.1)

Artists:  A B C D E F G H I J K L M N O P Q R S T U V W X Y Z # 

Into The Woods With Juliet-Vanessas Son Tabs (ver.1)

Unsigned Tabs
Rating:
0/5 (0 votes)
Hard to play? Try these video lessons and learn fast.
                Guitarest Joe martinez
Tuning (D, G, C, F, A, D,)
* = HERMNOIC 
INRO/verse Guitar 1

D--------0-------------0-------------0------------0----------0----------0------
A------1---1--------1----1---------1---1-------1----1-----1---1------1----1----
F------------------------------------------------------------------------------
C---3-------------3------------------------------------------------------------
G-------------------------------3---------------3-----------0---------3--------
D------------------------------------------------------------------------------

INTRO Guitar 2 (comes in on 2nd time around)

D-------12*-----------------------12*-----------------------------------------
A-------------7*------------------------7*------------------------------------
F------------------7*-------------------------7*----12*-----------------------
C—7*------------------------7*------------------------------------------------
G-----------------------------------------------------------------------------
D-----------------------------------------------------------------------------

Verse Guitar 2

D--0------0-0-0-0-0-0------0-0-0-0-0-0-0--
A--1------1-1-1-1-1-1------1-1-1-1-1-1-1--
F--0------0-0-0-0-0-0------0-0-0-0-0-0-0--
C--3P2----2-2-2-2-2-2------2-2-2-2-2-2-2--
G--3------3-3-3-3-3-3------2-2-2-2-2-2-2--
D--X------X-X-X-X-X-x------X-X-X-X-X-X-X--

Chorus Guitar 1

D--3-3-3-3-3-3-3-3-3-3------0-0-0-0-0-0-0-0-0-0------------------------------
A--3-3-3-3-3-3-3-3-3-3------0-0-0-0-0-0-0-0-0-0------------------------------
F--0-0-0-0-0-0-0-0-0-0------0-0-0-0-0-0-0-0-0-0------------------------------
C--0-0-0-0-0-0-0-0-0-0------2-2-2-2-2-2-2-2-2-2------------------------------
G--2-2-2-2-2-2-2-2-2-2------2-2-2-2-2-2-2-2-2-2------------------------------
D--3-3-3-3-3-3-3-3-3-3------0-0-0-0-0-0-0-0-0-0------------------------------

Chorus Guitar 2
D--3---------3------3------3---------------
A--3---------3------3------3---------------
F--0---------0-------0-----0---------------
C--2---------2-------2-----2---------------
G--3---------2-------3-----2---------------
D-----------------------------------------
OUTRO 

Guitar 1

D--------0-------------0-------------0------------0----------0-----------0-----
A------1---1--------1----1---------1----1-------1----1-----1---1------1-----1--
F------------------------------------------------------------------------------
C---3-------------3------------------------------------------------------------
G-------------------------------3---------------3-----------0---------3--------
D------------------------------------------------------------------------------


Guitar 2 (comes in on 2nd time around)

D-------12*-----------------------12*--------------------------------------------
A-------------7*------------------------7*---------------------------------------
F------------------7*-------------------------7*----12*--------------------------
C—7*------------------------7*---------------------------------------------------
G--------------------------------------------------------------------------------
D---------------------------------------------------------------------------------
            

comments powered by Disqus
↑ Back to top | Unsigned Tabs for Into The Woods With Juliet-Vanessas Son. Lyrics for acoustic guitar and electric guitar. Tablatures and chords are parodies/interpretations of the original songs. You may use it for private study, scholarship, research or language learning purposes only