» » »

Unsigned, Insyte-R+R Tabs (ver.1)

Artists:  A B C D E F G H I J K L M N O P Q R S T U V W X Y Z # 

Insyte-R+R Tabs (ver.1)

Unsigned Tabs
 Rating:
4/5 (4 votes)
Insyte-R+R lessons Tabs too difficult? Try these video lessons and learn fast
                
Intro

E:----------------------------------------------------------------------------------A:----------------------------------------------------------------------------------
G:---------------------2------------------------------------------------------------
D:--------2-----5-----2------0—2--0----------------------------------------------x4-A:--------2-----5-----0-------------------------------------------------------------
E:--------0-----3-------------------------------------------------------------------

Verse

E:----------------------------------------------------------------------------------
B:----------------------------------------------------------------------------------
G:----------------------------------------------------------------------------------
D:-----0—2b’-0-----2-------0—2b’--0----2----0—2b-‘--0---2------------------2—x4
A:---------------------2-----------------------2--------------------2----0—2b’0-2---
E:---------------------0-----------------------0--------------------0------------------0-----

Chorus
Same as intro but x8

Solo

E:-----10------------10----10------------10------10-------------10----------------
B:-----10----12-----------10-----12--------------10-----12------------------------
G:-------------------------------------------------------------------------------------
D:-----------------------------------------------------------------------------------
A:--------------------------------------------------------------------------------------------
E:--------------------------------------------------------------------------------------------

E:-----10------------10----10------------10------10-------------10----------------
B:-----10----12-----------10-----12--------------10-----12------------------------
G:-------------------------------------------------------------------------------------
D:-----------------------------------------------------------------------------------
A:--------------------------------------------------------------------------------------------
E:--------------------------------------------------------------------------------------------

E:------12b-12---10---------10---12--10----------12--10---------10-----12-----
B:-----------------------12--------------------12--------------12----------------
G:-----------------------------------------------------------------------------
D:-----------------------------------------------------------------------------
A:----------------------------------------------------------------------------
E:-----------------------------------------------------------------------------

E:-----------------------------------------------------------------------------
B:------12----10-------------------------------------------------------------------
G:--------------------12----9-----------9------12b------------------------------------
D:---------------------------------9--------------------------------------------
A:----------------------------------------------------------------------------
E:-----------------------------------------------------------------------------
E:------15--------------15---15-----------15---15------------15-----15-----------15-------
B:------15-----17------------15-----17---------15----17-------------15----17--------------
G:-----------------------------------------------------------------------------
D:-----------------------------------------------------------------------------
A:----------------------------------------------------------------------------
E:-----------------------------------------------------------------------------

E:------15----------15---15----------15------17b--17----15-----------17-----15----------
B:------15----17---------15----17--------------------------------17--------------------17--
G:-----------------------------------------------------------------------------
D:-----------------------------------------------------------------------------
A:----------------------------------------------------------------------------
E:-----------------------------------------------------------------------------

E:-----17--15----------17b18------------------------------------------------------------
B:----------------17-------------------------------------------------------------
G:-----------------------------------------------------------------------------
D:-----------------------------------------------------------------------------
A:----------------------------------------------------------------------------
E:-----------------------------------------------------------------------------


Intro
Verse
Chorus 
Verse
Chorus
Solo
Drumsolo- same as chorus
Chorus
Chorus
            
Submit corrections

comments powered by Disqus
↑ Back to top | Unsigned Tabs for Insyte-R+R. Lyrics for acoustic guitar and electric guitar. Tablatures and chords are parodies/interpretations of the original songs. You may use it for private study, scholarship, research or language learning purposes only