>
 >
Insyte-R+R

Insyte-R+R Guitar Tabs

Unsigned - Insyte-R+R chords, tabs, tablatures, lyrics

Guitar lessons | Add/correct | Request | Top 50 tabs Artists:  A B C D E F G H I J K L M N O P Q R S T U V W X Y Z 0-9

Insyte-R+R Guitar Tabs – Unsigned

CD, Sheet music, Poster

Do you like Insyte-R+R? Share with your friends now
Tabs

Intro

E:----------------------------------------------------------------------------------A:----------------------------------------------------------------------------------
G:---------------------2------------------------------------------------------------
D:--------2-----5-----2------02--0----------------------------------------------x4-A:--------2-----5-----0-------------------------------------------------------------
E:--------0-----3-------------------------------------------------------------------

Verse

E:----------------------------------------------------------------------------------
B:----------------------------------------------------------------------------------
G:----------------------------------------------------------------------------------
D:-----02b-0-----2-------02b--0----2----02b---0---2------------------2x4
A:---------------------2-----------------------2--------------------2----02b0-2---
E:---------------------0-----------------------0--------------------0------------------0-----

Chorus
Same as intro but x8

Solo

E:-----10------------10----10------------10------10-------------10----------------
B:-----10----12-----------10-----12--------------10-----12------------------------
G:-------------------------------------------------------------------------------------
D:-----------------------------------------------------------------------------------
A:--------------------------------------------------------------------------------------------
E:--------------------------------------------------------------------------------------------

E:-----10------------10----10------------10------10-------------10----------------
B:-----10----12-----------10-----12--------------10-----12------------------------
G:-------------------------------------------------------------------------------------
D:-----------------------------------------------------------------------------------
A:--------------------------------------------------------------------------------------------
E:--------------------------------------------------------------------------------------------

E:------12b-12---10---------10---12--10----------12--10---------10-----12-----
B:-----------------------12--------------------12--------------12----------------
G:-----------------------------------------------------------------------------
D:-----------------------------------------------------------------------------
A:----------------------------------------------------------------------------
E:-----------------------------------------------------------------------------

E:-----------------------------------------------------------------------------
B:------12----10-------------------------------------------------------------------
G:--------------------12----9-----------9------12b------------------------------------
D:---------------------------------9--------------------------------------------
A:----------------------------------------------------------------------------
E:-----------------------------------------------------------------------------
E:------15--------------15---15-----------15---15------------15-----15-----------15-------
B:------15-----17------------15-----17---------15----17-------------15----17--------------
G:-----------------------------------------------------------------------------
D:-----------------------------------------------------------------------------
A:----------------------------------------------------------------------------
E:-----------------------------------------------------------------------------

E:------15----------15---15----------15------17b--17----15-----------17-----15----------
B:------15----17---------15----17--------------------------------17--------------------17--
G:-----------------------------------------------------------------------------
D:-----------------------------------------------------------------------------
A:----------------------------------------------------------------------------
E:-----------------------------------------------------------------------------

E:-----17--15----------17b18------------------------------------------------------------
B:----------------17-------------------------------------------------------------
G:-----------------------------------------------------------------------------
D:-----------------------------------------------------------------------------
A:----------------------------------------------------------------------------
E:-----------------------------------------------------------------------------


Intro
Verse
Chorus 
Verse
Chorus
Solo
Drumsolo- same as chorus
Chorus
Chorus





Comments


Popular Unsigned tabs & chords
Antisocial Anarchist Society - Sarah Bass Tabs
Cats - Come Forth Bass Tabs
Darker Than Ink - Nothing Bass Tabs
Notu - The One You Dont Like Bass Tabs
Unkel Karboard - Baby Brains Bass Tabs
Anti Bioxic Tabs
Backup Plan - Mmm Midget Tabs
Disowned - Blind Tabs
Fds - Why Tabs
J.P.F - Whats Mine Is Mine Tabs


Song lyrics



↑ Back to top | Tablatures and chords are parodies/interpretations of the original songs. You may use it for private study, scholarship, research or language learning purposes only
© 2014 AZChords.com Contact us | Privacy policy | DMCA | Add/correct tabs | Request tabs | Top 50 tabs